  0
SECTION
  2
HEADER
  9
$ACADVER
  1
AC1015
  9
$ACADMAINTVER
 70
     6
  9
$DWGCODEPAGE
  3
ANSI_1252
  9
$INSBASE
 10
0.0
 20
0.0
 30
0.0
  9
$EXTMIN
 10
-691.4901654914
 20
-657.6942340496
 30
0.0
  9
$EXTMAX
 10
338.5098345086
 20
292.3057659504
 30
0.0
  9
$LIMMIN
 10
0.0
 20
0.0
  9
$LIMMAX
 10
420.0
 20
297.0
  9
$ORTHOMODE
 70
     0
  9
$REGENMODE
 70
     1
  9
$FILLMODE
 70
     1
  9
$QTEXTMODE
 70
     0
  9
$MIRRTEXT
 70
     1
  9
$LTSCALE
 40
1.0
  9
$ATTMODE
 70
     1
  9
$TEXTSIZE
 40
3.5
  9
$TRACEWID
 40
1.0
  9
$TEXTSTYLE
  7
Standard
  9
$CLAYER
  8
0
  9
$CELTYPE
  6
ByLayer
  9
$CECOLOR
 62
   256
  9
$CELTSCALE
 40
1.0
  9
$DISPSILH
 70
     0
  9
$DIMSCALE
 40
1.0
  9
$DIMASZ
 40
3.302
  9
$DIMEXO
 40
1.0
  9
$DIMDLI
 40
3.75
  9
$DIMRND
 40
0.0
  9
$DIMDLE
 40
0.0
  9
$DIMEXE
 40
1.0
  9
$DIMTP
 40
0.0
  9
$DIMTM
 40
0.0
  9
$DIMTXT
 40
3.5
  9
$DIMCEN
 40
2.5
  9
$DIMTSZ
 40
0.0
  9
$DIMTOL
 70
     0
  9
$DIMLIM
 70
     0
  9
$DIMTIH
 70
     1
  9
$DIMTOH
 70
     1
  9
$DIMSE1
 70
     0
  9
$DIMSE2
 70
     0
  9
$DIMTAD
 70
     1
  9
$DIMZIN
 70
     0
  9
$DIMBLK
  1

  9
$DIMASO
 70
     1
  9
$DIMSHO
 70
     1
  9
$DIMPOST
  1

  9
$DIMAPOST
  1

  9
$DIMALT
 70
     0
  9
$DIMALTD
 70
     3
  9
$DIMALTF
 40
0.0393700787
  9
$DIMLFAC
 40
1.0
  9
$DIMTOFL
 70
     1
  9
$DIMTVP
 40
0.0
  9
$DIMTIX
 70
     0
  9
$DIMSOXD
 70
     0
  9
$DIMSAH
 70
     0
  9
$DIMBLK1
  1

  9
$DIMBLK2
  1

  9
$DIMSTYLE
  2
ISO-25
  9
$DIMCLRD
 70
     0
  9
$DIMCLRE
 70
     0
  9
$DIMCLRT
 70
     0
  9
$DIMTFAC
 40
1.0
  9
$DIMGAP
 40
1.524
  9
$DIMJUST
 70
     0
  9
$DIMSD1
 70
     0
  9
$DIMSD2
 70
     0
  9
$DIMTOLJ
 70
     0
  9
$DIMTZIN
 70
     0
  9
$DIMALTZ
 70
     0
  9
$DIMALTTZ
 70
     0
  9
$DIMUPT
 70
     0
  9
$DIMDEC
 70
     2
  9
$DIMTDEC
 70
     2
  9
$DIMALTU
 70
     2
  9
$DIMALTTD
 70
     3
  9
$DIMTXSTY
  7
Standard
  9
$DIMAUNIT
 70
     0
  9
$DIMADEC
 70
     2
  9
$DIMALTRND
 40
0.0
  9
$DIMAZIN
 70
     0
  9
$DIMDSEP
 70
    44
  9
$DIMATFIT
 70
     3
  9
$DIMFRAC
 70
     0
  9
$DIMLDRBLK
  1

  9
$DIMLUNIT
 70
     2
  9
$DIMLWD
 70
    -2
  9
$DIMLWE
 70
    -2
  9
$DIMTMOVE
 70
     0
  9
$LUNITS
 70
     2
  9
$LUPREC
 70
     2
  9
$SKETCHINC
 40
1.0
  9
$FILLETRAD
 40
10.0
  9
$AUNITS
 70
     0
  9
$AUPREC
 70
     2
  9
$MENU
  1
.
  9
$ELEVATION
 40
0.0
  9
$PELEVATION
 40
0.0
  9
$THICKNESS
 40
0.0
  9
$LIMCHECK
 70
     0
  9
$CHAMFERA
 40
0.0
  9
$CHAMFERB
 40
0.0
  9
$CHAMFERC
 40
0.0
  9
$CHAMFERD
 40
0.0
  9
$SKPOLY
 70
     0
  9
$TDCREATE
 40
2459249.732102384
  9
$TDUCREATE
 40
2459249.732102384
  9
$TDUPDATE
 40
2459249.732482917
  9
$TDUUPDATE
 40
2459249.732482917
  9
$TDINDWG
 40
0.0000000116
  9
$TDUSRTIMER
 40
0.0000000116
  9
$USRTIMER
 70
     1
  9
$ANGBASE
 50
0.0
  9
$ANGDIR
 70
     0
  9
$PDMODE
 70
     0
  9
$PDSIZE
 40
-1.0
  9
$PLINEWID
 40
0.0
  9
$SPLFRAME
 70
     0
  9
$SPLINETYPE
 70
     6
  9
$SPLINESEGS
 70
     8
  9
$HANDSEED
  5
15C
  9
$SURFTAB1
 70
     6
  9
$SURFTAB2
 70
     6
  9
$SURFTYPE
 70
     6
  9
$SURFU
 70
     6
  9
$SURFV
 70
     6
  9
$UCSBASE
  2

  9
$UCSNAME
  2

  9
$UCSORG
 10
0.0
 20
0.0
 30
0.0
  9
$UCSXDIR
 10
1.0
 20
0.0
 30
0.0
  9
$UCSYDIR
 10
0.0
 20
1.0
 30
0.0
  9
$UCSORTHOREF
  2

  9
$UCSORTHOVIEW
 70
     0
  9
$UCSORGTOP
 10
0.0
 20
0.0
 30
0.0
  9
$UCSORGBOTTOM
 10
0.0
 20
0.0
 30
0.0
  9
$UCSORGLEFT
 10
0.0
 20
0.0
 30
0.0
  9
$UCSORGRIGHT
 10
0.0
 20
0.0
 30
0.0
  9
$UCSORGFRONT
 10
0.0
 20
0.0
 30
0.0
  9
$UCSORGBACK
 10
0.0
 20
0.0
 30
0.0
  9
$PUCSBASE
  2

  9
$PUCSNAME
  2

  9
$PUCSORG
 10
0.0
 20
0.0
 30
0.0
  9
$PUCSXDIR
 10
1.0
 20
0.0
 30
0.0
  9
$PUCSYDIR
 10
0.0
 20
1.0
 30
0.0
  9
$PUCSORTHOREF
  2

  9
$PUCSORTHOVIEW
 70
     0
  9
$PUCSORGTOP
 10
0.0
 20
0.0
 30
0.0
  9
$PUCSORGBOTTOM
 10
0.0
 20
0.0
 30
0.0
  9
$PUCSORGLEFT
 10
0.0
 20
0.0
 30
0.0
  9
$PUCSORGRIGHT
 10
0.0
 20
0.0
 30
0.0
  9
$PUCSORGFRONT
 10
0.0
 20
0.0
 30
0.0
  9
$PUCSORGBACK
 10
0.0
 20
0.0
 30
0.0
  9
$USERI1
 70
     0
  9
$USERI2
 70
     0
  9
$USERI3
 70
     0
  9
$USERI4
 70
     0
  9
$USERI5
 70
     0
  9
$USERR1
 40
0.0
  9
$USERR2
 40
0.0
  9
$USERR3
 40
0.0
  9
$USERR4
 40
0.0
  9
$USERR5
 40
0.0
  9
$WORLDVIEW
 70
     1
  9
$SHADEDGE
 70
     3
  9
$SHADEDIF
 70
    70
  9
$TILEMODE
 70
     1
  9
$MAXACTVP
 70
    64
  9
$PINSBASE
 10
0.0
 20
0.0
 30
0.0
  9
$PLIMCHECK
 70
     0
  9
$PEXTMIN
 10
1.0000000000E+20
 20
1.0000000000E+20
 30
1.0000000000E+20
  9
$PEXTMAX
 10
-1.0000000000E+20
 20
-1.0000000000E+20
 30
-1.0000000000E+20
  9
$PLIMMIN
 10
0.0
 20
0.0
  9
$PLIMMAX
 10
420.0
 20
297.0
  9
$UNITMODE
 70
     0
  9
$VISRETAIN
 70
     1
  9
$PLINEGEN
 70
     0
  9
$PSLTSCALE
 70
     1
  9
$TREEDEPTH
 70
  3020
  9
$CMLSTYLE
  2
Standard
  9
$CMLJUST
 70
     0
  9
$CMLSCALE
 40
20.0
  9
$PROXYGRAPHICS
 70
     1
  9
$MEASUREMENT
 70
     1
  9
$CELWEIGHT
370
    -1
  9
$ENDCAPS
280
     0
  9
$JOINSTYLE
280
     0
  9
$LWDISPLAY
290
     1
  9
$INSUNITS
 70
     4
  9
$HYPERLINKBASE
  1

  9
$STYLESHEET
  1

  9
$XEDIT
290
     1
  9
$CEPSNTYPE
380
     0
  9
$PSTYLEMODE
290
     1
  9
$FINGERPRINTGUID
  2
{61731EEE-5967-4B45-A5D0-B301DC007260}
  9
$VERSIONGUID
  2
{FAEB1C32-E019-11D5-929B-00C0DF256EC4}
  9
$EXTNAMES
290
     1
  9
$PSVPSCALE
 40
0.0
  9
$OLESTARTUP
290
     0
  0
ENDSEC
  0
SECTION
  2
CLASSES
  0
CLASS
  1
ACDBDICTIONARYWDFLT
  2
AcDbDictionaryWithDefault
  3
ObjectDBX Classes
 90
        0
280
     0
281
     0
  0
CLASS
  1
VISUALSTYLE
  2
AcDbVisualStyle
  3
ObjectDBX Classes
 90
     4095
280
     0
281
     0
  0
CLASS
  1
MATERIAL
  2
AcDbMaterial
  3
ObjectDBX Classes
 90
     1153
280
     0
281
     0
  0
CLASS
  1
SCALE
  2
AcDbScale
  3
ObjectDBX Classes
 90
     1153
280
     0
281
     0
  0
CLASS
  1
SUN
  2
AcDbSun
  3
SCENEOE
 90
     1153
280
     0
281
     0
  0
CLASS
  1
ACDBPLACEHOLDER
  2
AcDbPlaceHolder
  3
ObjectDBX Classes
 90
        0
280
     0
281
     0
  0
CLASS
  1
LAYOUT
  2
AcDbLayout
  3
ObjectDBX Classes
 90
        0
280
     0
281
     0
  0
ENDSEC
  0
SECTION
  2
TABLES
  0
TABLE
  2
VPORT
  5
8
330
0
100
AcDbSymbolTable
 70
     1
  0
VPORT
  5
29
330
8
100
AcDbSymbolTableRecord
100
AcDbViewportTableRecord
  2
*Active
 70
     0
 10
0.0
 20
0.0
 11
1.0
 21
1.0
 12
-176.4901654914
 22
-182.6942340496
 13
0.0
 23
0.0
 14
10.0
 24
10.0
 15
10.0
 25
10.0
 16
0.0
 26
0.0
 36
1.0
 17
0.0
 27
0.0
 37
0.0
 40
969.0
 41
1.0842105263
 42
50.0
 43
0.0
 44
0.0
 50
0.0
 51
0.0
 71
     0
 72
   100
 73
     1
 74
     3
 75
     0
 76
     0
 77
     0
 78
     0
281
     0
 65
     1
110
0.0
120
0.0
130
0.0
111
1.0
121
0.0
131
0.0
112
0.0
122
1.0
132
0.0
 79
     0
146
0.0
  0
ENDTAB
  0
TABLE
  2
LTYPE
  5
5
330
0
100
AcDbSymbolTable
 70
     6
  0
LTYPE
  5
14
330
5
100
AcDbSymbolTableRecord
100
AcDbLinetypeTableRecord
  2
ByBlock
 70
     0
  3

 72
    65
 73
     0
 40
0.0
  0
LTYPE
  5
15
330
5
100
AcDbSymbolTableRecord
100
AcDbLinetypeTableRecord
  2
ByLayer
 70
     0
  3

 72
    65
 73
     0
 40
0.0
  0
LTYPE
  5
16
330
5
100
AcDbSymbolTableRecord
100
AcDbLinetypeTableRecord
  2
Continuous
 70
     0
  3
Solid line
 72
    65
 73
     0
 40
0.0
  0
LTYPE
  5
6A
330
5
100
AcDbSymbolTableRecord
100
AcDbLinetypeTableRecord
  2
HIDDEN
 70
     0
  3
Hidden __ __ __ __ __ __ __ __ __ __ __ __ __ __
 72
    65
 73
     2
 40
1.905
 49
1.27
 74
     0
 49
-0.635
 74
     0
  0
LTYPE
  5
6B
330
5
100
AcDbSymbolTableRecord
100
AcDbLinetypeTableRecord
  2
PHANTOM
 70
     0
  3
Phantom ______  __  __  ______  __  __  ______
 72
    65
 73
     6
 40
12.7
 49
6.35
 74
     0
 49
-1.27
 74
     0
 49
1.27
 74
     0
 49
-1.27
 74
     0
 49
1.27
 74
     0
 49
-1.27
 74
     0
  0
LTYPE
  5
6C
330
5
100
AcDbSymbolTableRecord
100
AcDbLinetypeTableRecord
  2
CENTER
 70
     0
  3
Center ____ _ ____ _ ____ _ ____ _ ____ _ ____
 72
    65
 73
     4
 40
10.16
 49
6.35
 74
     0
 49
-1.27
 74
     0
 49
1.27
 74
     0
 49
-1.27
 74
     0
  0
LTYPE
  5
6D
330
5
100
AcDbSymbolTableRecord
100
AcDbLinetypeTableRecord
  2
CENTERX2
 70
     0
  3
Center (2x) ________  __  ________  __  _____
 72
    65
 73
     4
 40
20.32
 49
12.7
 74
     0
 49
-2.54
 74
     0
 49
2.54
 74
     0
 49
-2.54
 74
     0
  0
LTYPE
  5
6E
330
5
100
AcDbSymbolTableRecord
100
AcDbLinetypeTableRecord
  2
DOT2
 70
     0
  3
Dot (.5x) ........................................
 72
    65
 73
     2
 40
0.635
 49
0.0
 74
     0
 49
-0.635
 74
     0
  0
ENDTAB
  0
TABLE
  2
LAYER
  5
2
330
0
100
AcDbSymbolTable
 70
     1
  0
LAYER
  5
10
330
2
100
AcDbSymbolTableRecord
100
AcDbLayerTableRecord
  2
0
 70
     0
 62
     7
  6
Continuous
370
    -3
390
F
  0
ENDTAB
  0
TABLE
  2
STYLE
  5
3
330
0
100
AcDbSymbolTable
 70
     1
  0
STYLE
  5
11
330
3
100
AcDbSymbolTableRecord
100
AcDbTextStyleTableRecord
  2
Standard
 70
     0
 40
0.0
 41
1.0
 50
0.0
 71
     0
 42
3.5
  3
txt
  4

  0
ENDTAB
  0
TABLE
  2
VIEW
  5
6
330
0
100
AcDbSymbolTable
 70
     0
  0
ENDTAB
  0
TABLE
  2
UCS
  5
7
330
0
100
AcDbSymbolTable
 70
     0
  0
ENDTAB
  0
TABLE
  2
APPID
  5
9
330
0
100
AcDbSymbolTable
 70
     1
  0
APPID
  5
12
330
9
100
AcDbSymbolTableRecord
100
AcDbRegAppTableRecord
  2
ACAD
 70
     0
  0
ENDTAB
  0
TABLE
  2
DIMSTYLE
  5
A
330
0
100
AcDbSymbolTable
 70
     1
100
AcDbDimStyleTable
  0
DIMSTYLE
105
27
330
A
100
AcDbSymbolTableRecord
100
AcDbDimStyleTableRecord
  2
ISO-25
 70
     0
 41
2.5
 42
0.625
 43
3.75
 44
1.25
 73
     0
 74
     0
 77
     1
 78
     8
140
2.5
141
2.5
143
0.0393700787
147
0.625
171
     3
172
     1
178
     0
271
     2
272
     2
274
     3
278
    44
283
     0
284
     8
340
11
  0
ENDTAB
  0
TABLE
  2
BLOCK_RECORD
  5
1
330
0
100
AcDbSymbolTable
 70
     1
  0
BLOCK_RECORD
  5
1F
330
1
100
AcDbSymbolTableRecord
100
AcDbBlockTableRecord
  2
*Model_Space
340
22
  0
BLOCK_RECORD
  5
1B
330
1
100
AcDbSymbolTableRecord
100
AcDbBlockTableRecord
  2
*Paper_Space
340
1E
  0
BLOCK_RECORD
  5
23
330
1
100
AcDbSymbolTableRecord
100
AcDbBlockTableRecord
  2
*Paper_Space0
340
26
  0
ENDTAB
  0
ENDSEC
  0
SECTION
  2
BLOCKS
  0
BLOCK
  5
20
330
1F
100
AcDbEntity
  8
0
100
AcDbBlockBegin
  2
*Model_Space
 70
     0
 10
0.0
 20
0.0
 30
0.0
  3
*Model_Space
  1
*Model_Space
  0
ENDBLK
  5
21
330
1F
100
AcDbEntity
  8
0
100
AcDbBlockEnd
  0
BLOCK
  5
1C
330
1B
100
AcDbEntity
 67
     1
  8
0
100
AcDbBlockBegin
  2
*Paper_Space
 70
     0
 10
0.0
 20
0.0
 30
0.0
  3
*Paper_Space
  1
*Paper_Space
  0
ENDBLK
  5
1D
330
1B
100
AcDbEntity
 67
     1
  8
0
100
AcDbBlockEnd
  0
BLOCK
  5
24
330
23
100
AcDbEntity
  8
0
100
AcDbBlockBegin
  2
*Paper_Space0
 70
     0
 10
0.0
 20
0.0
 30
0.0
  3
*Paper_Space0
  1
*Paper_Space0
  0
ENDBLK
  5
25
330
23
100
AcDbEntity
  8
0
100
AcDbBlockEnd
  0
ENDSEC
  0
SECTION
  2
ENTITIES
  0
LWPOLYLINE
  5
70
330
1F
100
AcDbEntity
  8
0
  6
Continuous
 62
     7
100
AcDbPolyline
 90
       76
 70
   128
 43
0.0
 10
-28.9597511292
 20
184.8438716912
 10
-43.8451062016
 20
195.2941353294
 10
-43.8451062016
 20
195.2941353294
 10
-44.3627902414
 20
195.6109270552
 10
-44.895927536
 20
195.8504525064
 10
-45.4483813994
 20
196.012711683
 10
-46.0162885176
 20
196.0938412714
 10
-46.5880589496
 20
196.11315784
 10
-47.1521027541
 20
196.0745247027
 10
-47.7122832448
 20
195.9856684869
 10
-48.2608737944
 20
195.8427258789
 10
-48.7978744028
 20
195.6534235062
 10
-49.3194217563
 20
195.4177613687
 10
-49.8216525411
 20
195.1396027802
 10
-50.308430071
 20
194.8150844269
 10
-50.7643010911
 20
194.4596595638
 10
-51.1738123464
 20
194.084918132
 10
-51.5446904645
 20
193.6869968179
 10
-51.8692088177
 20
193.2658956214
 10
-51.8692088177
 20
193.2658956214
 10
-55.4659538999
 20
188.1431416161
 10
-55.4659538999
 20
188.1431416161
 10
-55.8406953316
 20
187.5288747331
 10
-56.1574870574
 20
186.8489315168
 10
-56.4047391361
 20
186.1226285356
 10
-56.5824515677
 20
185.3692823584
 10
-56.6713077835
 20
184.5966196125
 10
-56.6713077835
 20
183.8007769842
 10
-56.6326746462
 20
183.4067189838
 10
-56.5708616265
 20
183.0242509246
 10
-56.4820054107
 20
182.6572361203
 10
-56.3661059988
 20
182.3018112572
 10
-56.3661059988
 20
182.3018112572
 10
-56.2695231556
 20
181.8691201195
 10
-56.1343071751
 20
181.4441556092
 10
-55.9565947435
 20
181.0307810402
 10
-55.7441124884
 20
180.6289964123
 10
-55.4852704685
 20
180.2465283531
 10
-55.1877953113
 20
179.89110349
 10
-54.8439603894
 20
179.5665851367
 10
-54.4576290165
 20
179.2652466658
 10
-54.4576290165
 20
179.2652466658
 10
-39.6340942365
 20
168.8574794786
 10
-39.6340942365
 20
168.8574794786
 10
-36.3464142527
 20
173.5436790325
 10
-36.3464142527
 20
173.5436790325
 10
-36.4584503509
 20
174.1656725429
 10
-36.4584503509
 20
174.1656725429
 10
-36.2111982722
 20
174.5172340923
 10
-36.2111982722
 20
174.5172340923
 10
-48.4926726182
 20
183.1401503365
 10
-48.4926726182
 20
183.1401503365
 10
-44.996373693
 20
188.1199617337
 10
-44.996373693
 20
188.1199617337
 10
-45.0079636342
 20
188.1392783024
 10
-45.038870144
 20
188.1238250475
 10
-45.0736399676
 20
188.1238250475
 10
-45.1431796147
 20
188.1547315573
 10
-45.2436257717
 20
188.216544577
 10
-45.3788417522
 20
188.3054007928
 10
-45.3788417522
 20
188.3054007928
 10
-39.3675255892
 20
184.0866622002
 10
-39.3675255892
 20
184.0866622002
 10
-40.4531167472
 20
182.5374733947
 10
-40.4531167472
 20
182.5374733947
 10
-40.1865480998
 20
182.3481710219
 10
-40.1865480998
 20
182.3481710219
 10
-40.0783753154
 20
181.7261775115
 10
-40.0783753154
 20
181.7261775115
 10
-33.7309508579
 20
177.2679134677
 10
-33.7309508579
 20
177.2679134677
 10
-29.0988376963
 20
183.8664533176
 10
-29.0988376963
 20
183.8664533176
 10
-29.2070104807
 20
184.4923101418
 10
-29.2070104807
 20
184.4923101418
 10
-28.959758402
 20
184.8438716912
  0
LWPOLYLINE
  5
71
330
1F
100
AcDbEntity
  8
0
  6
Continuous
 62
     7
100
AcDbPolyline
 90
       68
 70
   128
 43
0.0
 10
-44.4052815437
 20
194.4982927011
 10
-30.5630335997
 20
184.7781953578
 10
-30.5630335997
 20
184.7781953578
 10
-34.3259011722
 20
179.419779215
 10
-34.3259011722
 20
179.419779215
 10
-38.8537048632
 20
182.5992864143
 10
-38.8537048632
 20
182.5992864143
 10
-37.5054083716
 20
184.5154900242
 10
-37.5054083716
 20
184.5154900242
 10
-44.9925103793
 20
189.77346001
 10
-44.9925103793
 20
189.77346001
 10
-45.2243092031
 20
189.9086759905
 10
-45.425201517
 20
189.9743523239
 10
-45.5990506348
 20
189.9704890102
 10
-45.7458565565
 20
189.8932227356
 10
-45.9737920666
 20
189.6807404804
 10
-46.1476411844
 20
189.4759848528
 10
-46.1476411844
 20
189.4759848528
 10
-49.8293791686
 20
184.2334681219
 10
-49.8293791686
 20
184.2334681219
 10
-50.0302714825
 20
183.8625900039
 10
-50.2002572866
 20
183.5457982781
 10
-50.2350271102
 20
183.3951290426
 10
-50.180940718
 20
183.2367331797
 10
-50.0495880512
 20
183.0667473756
 10
-49.8293791686
 20
182.889034944
 10
-49.8293791686
 20
182.889034944
 10
-37.8144734699
 20
174.4515577589
 10
-37.8144734699
 20
174.4515577589
 10
-40.2290445509
 20
171.0093452259
 10
-40.2290445509
 20
171.0093452259
 10
-54.0712976435
 20
180.7294425693
 10
-54.0712976435
 20
180.7294425693
 10
-54.3958159968
 20
180.9921479029
 10
-54.6739745853
 20
181.28962306
 10
-54.9135000366
 20
181.6218680408
 10
-55.106665723
 20
181.9927461588
 10
-55.2573349585
 20
182.3945307867
 10
-55.3732343704
 20
182.8156319832
 10
-55.450500645
 20
183.2599130621
 10
-55.492997096
 20
183.7235107096
 10
-55.492997096
 20
184.1986982983
 10
-55.4543639587
 20
184.6816125145
 10
-55.3732343704
 20
185.1645267307
 10
-55.2534716447
 20
185.6513042606
 10
-55.0950757818
 20
186.1264918493
 10
-54.9057734091
 20
186.5823628694
 10
-54.6817012128
 20
187.0073273797
 10
-54.4228591929
 20
187.4129753213
 10
-54.4228591929
 20
187.4129753213
 10
-50.8261141108
 20
192.5357293265
 10
-50.8261141108
 20
192.5357293265
 10
-50.5325022673
 20
192.9181973857
 10
-50.2041206003
 20
193.2774855626
 10
-49.8409691098
 20
193.613593857
 10
-49.4430477956
 20
193.9265222691
 10
-49.0219465991
 20
194.2085441714
 10
-48.5931187751
 20
194.4519329363
 10
-48.15270101
 20
194.6528252503
 10
-47.7084199311
 20
194.8112211132
 10
-47.2602755385
 20
194.9309838388
 10
-46.8198577733
 20
195.0082501134
 10
-46.3833033219
 20
195.0430199369
 10
-45.9506121842
 20
195.0352933095
 10
-45.5295109877
 20
194.9812069173
 10
-45.1315896735
 20
194.8730341329
 10
-44.7568482418
 20
194.7107749562
 10
-44.4052866924
 20
194.4982927011
  0
LWPOLYLINE
  5
72
330
1F
100
AcDbEntity
  8
0
  6
Continuous
 62
     7
100
AcDbPolyline
 90
       32
 70
   128
 43
0.0
 10
-6.3428357244
 20
168.8711224894
 10
-12.7018536013
 20
173.3371131607
 10
-12.7018536013
 20
173.3371131607
 10
-18.218665607
 20
165.4829963487
 10
-18.218665607
 20
165.4829963487
 10
-18.7827094115
 20
177.6060748317
 10
-18.7827094115
 20
177.6060748317
 10
-27.2626830477
 20
183.5594412888
 10
-27.2626830477
 20
183.5594412888
 10
-38.0490549804
 20
168.1989059005
 10
-38.0490549804
 20
168.1989059005
 10
-37.782486333
 20
168.0134668415
 10
-37.782486333
 20
168.0134668415
 10
-37.6704502349
 20
167.3876100173
 10
-37.6704502349
 20
167.3876100173
 10
-31.5818677972
 20
163.1147850325
 10
-31.5818677972
 20
163.1147850325
 10
-26.11527887
 20
170.9032255111
 10
-26.11527887
 20
170.9032255111
 10
-25.6787244186
 20
159.5141766366
 10
-25.6787244186
 20
159.5141766366
 10
-25.5860048891
 20
159.4485003032
 10
-25.5860048891
 20
159.4485003032
 10
-25.4739687909
 20
158.8265067928
 10
-25.4739687909
 20
158.8265067928
 10
-17.0210383509
 20
152.8885935906
 10
-17.0210383509
 20
152.8885935906
 10
-6.4857818106
 20
167.8975674296
 10
-6.4857818106
 20
167.8975674296
 10
-6.5900912813
 20
168.51956094
 10
-6.5900912813
 20
168.51956094
 10
-6.3428392026
 20
168.8711224894
  0
LWPOLYLINE
  5
73
330
1F
100
AcDbEntity
  8
0
  6
Continuous
 62
     7
100
AcDbPolyline
 90
       20
 70
   128
 43
0.0
 10
-12.2189372778
 20
171.8072409238
 10
-7.9461144003
 20
168.8093094697
 10
-7.9461144003
 20
168.8093094697
 10
-17.6121253515
 20
155.0404593379
 10
-17.6121253515
 20
155.0404593379
 10
-24.5776800057
 20
159.9314145194
 10
-24.5776800057
 20
159.9314145194
 10
-26.3200344977
 20
173.6114084355
 10
-26.3200344977
 20
173.6114084355
 10
-32.1768181116
 20
165.2666507798
 10
-32.1768181116
 20
165.2666507798
 10
-36.4457797826
 20
168.2645822339
 10
-36.4457797826
 20
168.2645822339
 10
-26.7797688315
 20
182.0334323657
 10
-26.7797688315
 20
182.0334323657
 10
-19.8837538244
 20
177.1888369489
 10
-19.8837538244
 20
177.1888369489
 10
-18.0795863127
 20
163.4586199544
 10
-18.0795863127
 20
163.4586199544
 10
-12.2189393851
 20
171.8072409238
  0
LWPOLYLINE
  5
74
330
1F
100
AcDbEntity
  8
0
  6
Continuous
 62
     7
100
AcDbPolyline
 90
      108
 70
   128
 43
0.0
 10
-11.896520853
 20
157.254566035
 10
-15.4314582999
 20
152.2206682455
 10
-15.4314582999
 20
152.2206682455
 10
-15.1648896525
 20
152.0352291865
 10
-15.1648896525
 20
152.0352291865
 10
-15.0528535544
 20
151.4093723624
 10
-15.0528535544
 20
151.4093723624
 10
-0.4031678922
 20
141.1252312145
 10
-0.4031678922
 20
141.1252312145
 10
0.1261060887
 20
140.804576175
 10
0.6708333246
 20
140.56118741
 10
1.2387404428
 20
140.4027915471
 10
1.8221008159
 20
140.3255252725
 10
2.4093245028
 20
140.3139353313
 10
2.9810949348
 20
140.3525684686
 10
3.5374121118
 20
140.4375613707
 10
4.0744127202
 20
140.5727773512
 10
4.59209676
 20
140.7543530965
 10
5.0904642311
 20
140.9745619791
 10
5.5617885061
 20
141.2295406852
 10
6.0137962124
 20
141.5231525286
 10
6.4348974089
 20
141.8476708819
 10
6.8096388407
 20
142.1837791764
 10
7.1418838214
 20
142.5392040395
 10
7.4277690374
 20
142.9062188438
 10
7.4277690374
 20
142.9062188438
 10
7.7213808808
 20
143.3775431188
 10
7.976359587
 20
143.902953786
 10
8.1888418421
 20
144.4785875317
 10
8.3626909599
 20
145.1083076696
 10
8.490180313
 20
145.7612076899
 10
8.5597199601
 20
146.402517769
 10
8.5713099013
 20
147.0399645343
 10
8.5249501366
 20
147.6696846722
 10
8.5249501366
 20
147.6696846722
 10
8.490180313
 20
148.3071314376
 10
8.4013240972
 20
148.9368515755
 10
8.2506548618
 20
149.5549817722
 10
8.0458992341
 20
150.1653853415
 10
7.7716039593
 20
150.7487457146
 10
7.404589155
 20
151.285746323
 10
6.9525814487
 20
151.7686605392
 10
6.4117175266
 20
152.2052149906
 10
6.4117175266
 20
152.2052149906
 10
-1.29173005
 20
157.6138542119
 10
-1.29173005
 20
157.6138542119
 10
-1.4037661482
 20
157.5095447412
 10
-1.4887590502
 20
157.4361417803
 10
-1.5428454424
 20
157.3897820156
 10
-1.5737519523
 20
157.3781920744
 10
-1.6278383445
 20
157.4052352705
 10
-1.7398744426
 20
157.4786382313
 10
-1.7398744426
 20
157.4786382313
 10
10.8429383743
 20
148.6432397321
 10
10.8429383743
 20
148.6432397321
 10
14.130618358
 20
153.3255759722
 10
14.130618358
 20
153.3255759722
 10
14.0263088873
 20
153.9475694826
 10
14.0263088873
 20
153.9475694826
 10
14.273560966
 20
154.299131032
 10
14.273560966
 20
154.299131032
 10
-0.2022755783
 20
164.4635094542
 10
-0.2022755783
 20
164.4635094542
 10
-0.719959618
 20
164.78030118
 10
-1.2530969127
 20
165.0198266313
 10
-1.805550776
 20
165.1782224942
 10
-2.3734578943
 20
165.2632153962
 10
-2.9452283262
 20
165.2825319649
 10
-3.5131354444
 20
165.2477621413
 10
-4.0694526215
 20
165.1589059255
 10
-4.6219064848
 20
165.0159633175
 10
-5.1589070932
 20
164.8227976311
 10
-5.6804544467
 20
164.5909988073
 10
-6.1826852315
 20
164.308976905
 10
-6.6694627614
 20
163.9883218655
 10
-7.1253337815
 20
163.6328970024
 10
-7.5348450368
 20
163.2581555706
 10
-7.9057231549
 20
162.8602342565
 10
-8.2302415081
 20
162.43913306
 10
-8.2302415081
 20
162.43913306
 10
-8.6011196262
 20
161.8171395495
 10
-8.9063214108
 20
161.1062898233
 10
-9.1342569208
 20
160.3452170186
 10
-9.2849261563
 20
159.5648276453
 10
-9.3506024897
 20
158.7767116444
 10
-9.3351492348
 20
157.9770057024
 10
-9.2231131366
 20
157.2004796428
 10
-9.0183575089
 20
156.4741766617
 10
-9.0183575089
 20
156.4741766617
 10
-8.917911352
 20
156.0221689553
 10
-8.7826953714
 20
155.5972044451
 10
-8.6165728811
 20
155.199283131
 10
-8.4118172534
 20
154.8284050129
 10
-8.1722918022
 20
154.484570091
 10
-7.8979965274
 20
154.1639150515
 10
-7.5927947428
 20
153.8741665217
 10
-7.2489598208
 20
153.6075978744
 10
-7.2489598208
 20
153.6075978744
 10
0.3772214811
 20
148.2530450454
 10
0.3772214811
 20
148.2530450454
 10
0.4544877557
 20
148.3689444573
 10
0.5085741479
 20
148.4423474181
 10
0.5394806578
 20
148.473253928
 10
0.5472072852
 20
148.4616639868
 10
0.5781137951
 20
148.4230308495
 10
0.6746966383
 20
148.4307574769
 10
0.6746966383
 20
148.4307574769
 10
-11.8965262374
 20
157.254566035
  0
LWPOLYLINE
  5
75
330
1F
100
AcDbEntity
  8
0
  6
Continuous
 62
     7
100
AcDbPolyline
 90
      118
 70
   128
 43
0.0
 10
-13.8281807303
 20
152.2863445789
 10
-11.4136120212
 20
155.7285571119
 10
-11.4136120212
 20
155.7285571119
 10
0.1145161475
 20
147.6349148487
 10
0.1145161475
 20
147.6349148487
 10
0.3733581674
 20
147.4842456132
 10
0.6128836186
 20
147.4031160249
 10
0.8408191287
 20
147.3915260837
 10
1.0494380701
 20
147.4494757896
 10
1.2348771291
 20
147.5421953192
 10
1.393272992
 20
147.6310515349
 10
1.5168990313
 20
147.7121811233
 10
1.6096185608
 20
147.7894473978
 10
1.6096185608
 20
147.7894473978
 10
1.663704953
 20
147.9053468097
 10
1.6946114629
 20
148.0676059864
 10
1.7062014041
 20
148.2762249278
 10
1.6946114629
 20
148.5312036339
 10
1.6482516981
 20
148.7977722812
 10
1.5439422274
 20
149.0334344187
 10
1.3894096782
 20
149.2420533601
 10
1.1807907369
 20
149.4236291054
 10
1.1807907369
 20
149.4236291054
 10
-6.8664917616
 20
155.0717937779
 10
-6.8664917616
 20
155.0717937779
 10
-7.1523769776
 20
155.3074559154
 10
-7.3996290563
 20
155.5817511902
 10
-7.6198379389
 20
155.9024062297
 10
-7.8014136842
 20
156.2655577203
 10
-7.9482196059
 20
156.6634790344
 10
-8.060255704
 20
157.0845802309
 10
-8.1375219786
 20
157.5327246236
 10
-8.1800184296
 20
158.0079122123
 10
-8.1838817434
 20
158.4946897422
 10
-8.1491119198
 20
158.9853305858
 10
-8.0795722727
 20
159.4721081157
 10
-7.975262802
 20
159.9588856457
 10
-7.832320194
 20
160.4340732344
 10
-7.6546077624
 20
160.882217627
 10
-7.4382621936
 20
161.3071821372
 10
-7.1871468012
 20
161.7051034514
 10
-7.1871468012
 20
161.7051034514
 10
-6.8935349577
 20
162.0837081969
 10
-6.5690166045
 20
162.4429963737
 10
-6.2058651139
 20
162.7752413544
 10
-5.8118071135
 20
163.0881697665
 10
-5.390705917
 20
163.3701916688
 10
-4.961878093
 20
163.6135804337
 10
-4.5214603278
 20
163.8144727477
 10
-4.0733159352
 20
163.9767319243
 10
-3.6213082289
 20
164.0964946499
 10
-3.17702715
 20
164.1776242382
 10
-2.7404726986
 20
164.2123940618
 10
-2.3077815609
 20
164.2046674343
 10
-1.8905436781
 20
164.1505810421
 10
-1.4926223639
 20
164.0424082577
 10
-1.1178809322
 20
163.8840123948
 10
-0.7624560691
 20
163.6676668259
 10
-0.7624560691
 20
163.6676668259
 10
12.6702857683
 20
154.2373180123
 10
12.6702857683
 20
154.2373180123
 10
10.2557146874
 20
150.7951054794
 10
10.2557146874
 20
150.7951054794
 10
-1.3496797559
 20
158.9428341348
 10
-1.3496797559
 20
158.9428341348
 10
-1.5582986973
 20
159.0703234879
 10
-1.7476010701
 20
159.1475897625
 10
-1.9137235604
 20
159.1707696448
 10
-2.0566661684
 20
159.139863135
 10
-2.1957454627
 20
159.0664601742
 10
-2.3464146981
 20
158.954424076
 10
-2.5086738748
 20
158.8076181543
 10
-2.6825229926
 20
158.626042409
 10
-2.6825229926
 20
158.626042409
 10
-2.8331922281
 20
158.3672003891
 10
-2.9684082086
 20
158.0426820358
 10
-2.9993147184
 20
157.8726962317
 10
-2.9722715223
 20
157.7143003688
 10
-2.8834153065
 20
157.5674944471
 10
-2.7327460711
 20
157.4361417803
 10
-2.7327460711
 20
157.4361417803
 10
5.8515370358
 20
151.4093723624
 10
5.8515370358
 20
151.4093723624
 10
6.2146885264
 20
151.1157605189
 10
6.5237536247
 20
150.771925597
 10
6.7787323309
 20
150.385594224
 10
6.9834879585
 20
149.9529030863
 10
7.1418838214
 20
149.4931687525
 10
7.2539199196
 20
149.0179811638
 10
7.3273228804
 20
148.5273403202
 10
7.3543660765
 20
148.0251095353
 10
7.3427761354
 20
147.515152123
 10
7.2925530569
 20
147.0090580245
 10
7.2075601548
 20
146.5029639259
 10
7.0800708018
 20
146.0007331411
 10
6.9255382526
 20
145.5178189249
 10
6.747825821
 20
145.0774011598
 10
6.5469335071
 20
144.6794798456
 10
6.3228613108
 20
144.3201916688
 10
6.3228613108
 20
144.3201916688
 10
6.0678826046
 20
143.9956733155
 10
5.7742707612
 20
143.6866082171
 10
5.4420257805
 20
143.38913306
 10
5.0672843487
 20
143.1071111577
 10
4.6654997208
 20
142.8482691379
 10
4.2521251518
 20
142.6203336278
 10
3.8271606415
 20
142.4271679413
 10
3.3867428764
 20
142.2649087647
 10
2.9424617975
 20
142.1412827254
 10
2.4981807186
 20
142.060153137
 10
2.050036326
 20
142.0215199997
 10
1.6018919334
 20
142.0253833135
 10
1.1653374819
 20
142.0794697057
 10
0.7480995992
 20
142.1953691176
 10
0.3540415987
 20
142.3614916079
 10
-0.020699833
 20
142.589427118
 10
-0.020699833
 20
142.589427118
 10
-13.8281831021
 20
152.2863445789
  0
LWPOLYLINE
  5
76
330
1F
100
AcDbEntity
  8
0
  6
Continuous
 62
     7
100
AcDbPolyline
 90
        8
 70
   128
 43
0.0
 10
10.7822045684
 20
142.5914801876
 10
18.7947186566
 20
136.9664953975
 10
18.7947186566
 20
136.9664953975
 10
21.2247429924
 20
140.4280244991
 10
21.2247429924
 20
140.4280244991
 10
13.2122303175
 20
146.0530092892
 10
13.2122303175
 20
146.0530092892
 10
10.7822059817
 20
142.5914801876
  0
LWPOLYLINE
  5
77
330
1F
100
AcDbEntity
  8
0
  6
Continuous
 62
     7
100
AcDbPolyline
 90
       16
 70
   128
 43
0.0
 10
9.5575302839
 20
141.714507971
 10
9.449362745
 20
142.3403647951
 10
9.449362745
 20
142.3403647951
 10
9.1827940977
 20
142.5258038542
 10
9.1827940977
 20
142.5258038542
 10
12.7293161013
 20
147.5790182123
 10
12.7293161013
 20
147.5790182123
 10
22.8280181901
 20
140.4898375187
 10
22.8280181901
 20
140.4898375187
 10
22.5846294252
 20
140.1421392831
 10
22.5846294252
 20
140.1421392831
 10
22.6928022096
 20
139.5162824589
 10
22.6928022096
 20
139.5162824589
 10
19.3896689709
 20
134.8107663364
 10
19.3896689709
 20
134.8107663364
 10
9.5575355294
 20
141.714507971
  0
LWPOLYLINE
  5
78
330
1F
100
AcDbEntity
  8
0
  6
Continuous
 62
     7
100
AcDbPolyline
 90
       78
 70
   128
 43
0.0
 10
28.0696451664
 20
144.4698241687
 10
17.2832797559
 20
129.1092887804
 10
17.2832797559
 20
129.1092887804
 10
17.5498484032
 20
128.9238497214
 10
17.5498484032
 20
128.9238497214
 10
17.6618845014
 20
128.2979928972
 10
17.6618845014
 20
128.2979928972
 10
23.7697835076
 20
124.0097146575
 10
23.7697835076
 20
124.0097146575
 10
30.9594103582
 20
134.2513593543
 10
30.9594103582
 20
134.2513593543
 10
38.5546851503
 20
128.9199864076
 10
38.5546851503
 20
128.9199864076
 10
38.5237786405
 20
128.9895260548
 10
38.4696922483
 20
129.0706556431
 10
38.4696922483
 20
129.0706556431
 10
38.4812821895
 20
128.9895260548
 10
38.4851455032
 20
128.985662741
 10
38.4851455032
 20
128.985662741
 10
37.5038638159
 20
127.587143171
 10
37.5038638159
 20
127.587143171
 10
37.4690939923
 20
127.5562366611
 10
37.3802377766
 20
127.4982869552
 10
37.2682016784
 20
127.428747308
 10
37.1407123253
 20
127.3707976021
 10
37.0248129134
 20
127.3244378374
 10
36.9320933839
 20
127.2973946412
 10
36.8895969329
 20
127.2780780726
 10
36.9011868741
 20
127.2548981902
 10
36.9011868741
 20
127.2548981902
 10
29.0393434346
 20
132.7717101959
 10
29.0393434346
 20
132.7717101959
 10
25.3807853328
 20
127.5639632886
 10
25.3807853328
 20
127.5639632886
 10
25.6512172939
 20
127.3746609158
 10
25.6512172939
 20
127.3746609158
 10
25.7593900783
 20
126.7565307191
 10
25.7593900783
 20
126.7565307191
 10
34.4209394598
 20
120.6756749089
 10
34.4209394598
 20
120.6756749089
 10
35.0390696565
 20
120.3666098106
 10
35.6533365395
 20
120.0961778495
 10
36.259876795
 20
119.8682423395
 10
36.8664170505
 20
119.6789399667
 10
37.4652306786
 20
119.5398606725
 10
38.0563176792
 20
119.4510044567
 10
38.6319514249
 20
119.4162346331
 10
39.1998585431
 20
119.4355512018
 10
39.7523124064
 20
119.5089541626
 10
40.2815863874
 20
119.6403068294
 10
40.7876804859
 20
119.8296092022
 10
41.2744580159
 20
120.0729979671
 10
41.7380556634
 20
120.3781997518
 10
42.1746101148
 20
120.7452145561
 10
42.5841213701
 20
121.17404238
 10
42.9665894294
 20
121.6646832237
 10
42.9665894294
 20
121.6646832237
 10
44.8673397843
 20
124.372866148
 10
44.8673397843
 20
124.372866148
 10
45.1648149414
 20
124.8480537368
 10
45.427520275
 20
125.3696010902
 10
45.6515924713
 20
125.9336448947
 10
45.8370315304
 20
126.544048464
 10
45.9722475109
 20
127.1814952294
 10
46.0456504717
 20
127.8189419947
 10
46.0533770992
 20
128.4602520738
 10
45.999290707
 20
129.1015621529
 10
45.999290707
 20
129.1015621529
 10
45.9722475109
 20
129.6733325849
 10
45.8872546088
 20
130.2412397031
 10
45.7404486871
 20
130.8130101351
 10
45.5395563732
 20
131.384780567
 10
45.2691244121
 20
131.9333711166
 10
44.9175628627
 20
132.4394652152
 10
44.484871725
 20
132.8953362352
 10
43.9749143128
 20
133.3048474906
 10
43.9749143128
 20
133.3048474906
 10
28.0696516885
 20
144.4698241687
  0
LWPOLYLINE
  5
79
330
1F
100
AcDbEntity
  8
0
  6
Continuous
 62
     7
100
AcDbPolyline
 90
       72
 70
   128
 43
0.0
 10
18.8865512609
 20
129.1749651138
 10
28.5525659047
 20
142.9438152456
 10
28.5525659047
 20
142.9438152456
 10
43.414733822
 20
132.5090048623
 10
43.414733822
 20
132.5090048623
 10
43.7662953714
 20
132.2231196463
 10
44.0676338423
 20
131.8947379793
 10
44.3148859209
 20
131.5238598613
 10
44.5080516074
 20
131.1104852922
 10
44.6548575291
 20
130.6739308408
 10
44.7553036861
 20
130.2257864482
 10
44.8132533921
 20
129.7660521144
 10
44.828706647
 20
129.2947278394
 10
44.8055267646
 20
128.8195402507
 10
44.7475770586
 20
128.3443526619
 10
44.6509942154
 20
127.8730283869
 10
44.5235048623
 20
127.4017041119
 10
44.3689723132
 20
126.9496964056
 10
44.1873965679
 20
126.5324585228
 10
43.9865042539
 20
126.1461271499
 10
43.7585687439
 20
125.7945656005
 10
43.7585687439
 20
125.7945656005
 10
41.8539550753
 20
123.0825193624
 10
41.8539550753
 20
123.0825193624
 10
41.5101201534
 20
122.6382382835
 10
41.1508319765
 20
122.2557702243
 10
40.772227231
 20
121.9351151847
 10
40.3781692306
 20
121.6762731649
 10
39.9686579753
 20
121.4753808509
 10
39.5475567788
 20
121.3208483018
 10
39.1110023274
 20
121.2165388311
 10
38.6628579347
 20
121.1547258114
 10
38.2031236009
 20
121.1431358702
 10
37.7279360122
 20
121.1779056938
 10
37.2411584823
 20
121.2551719684
 10
36.7389276975
 20
121.3787980077
 10
35.7306028141
 20
121.7303595571
 10
34.7300045581
 20
122.1900938909
 10
34.7300045581
 20
122.1900938909
 10
26.9840605306
 20
127.629639622
 10
26.9840605306
 20
127.629639622
 10
29.5222576508
 20
131.2457012728
 10
29.5222576508
 20
131.2457012728
 10
36.3410063833
 20
126.459055562
 10
36.3410063833
 20
126.459055562
 10
36.5303087561
 20
126.3470194638
 10
36.7157478151
 20
126.2736165029
 10
36.9050501878
 20
126.2388466794
 10
37.0904892468
 20
126.2427099931
 10
37.4265975413
 20
126.300659699
 10
37.6893028749
 20
126.3779259736
 10
37.9211016987
 20
126.4783721306
 10
38.1644904636
 20
126.5942715425
 10
38.3846993462
 20
126.7256242093
 10
38.5469585229
 20
126.8531135624
 10
38.5469585229
 20
126.8531135624
 10
39.5282402101
 20
128.2516331324
 10
39.5282402101
 20
128.2516331324
 10
39.5861899161
 20
128.3984390541
 10
39.6132331122
 20
128.6302378779
 10
39.6093697985
 20
128.9083964664
 10
39.5745999749
 20
129.186555055
 10
39.501197014
 20
129.4878935259
 10
39.3814342884
 20
129.8201385066
 10
39.1998585431
 20
130.1330669187
 10
38.9332898958
 20
130.3803189974
 10
38.9332898958
 20
130.3803189974
 10
30.3644600438
 20
136.3993617879
 10
30.3644600438
 20
136.3993617879
 10
23.178696507
 20
126.1615804048
 10
23.178696507
 20
126.1615804048
 10
18.8865549536
 20
129.1749651138
  0
LWPOLYLINE
  5
7A
330
1F
100
AcDbEntity
  8
0
  6
Continuous
 62
     7
100
AcDbPolyline
 90
       74
 70
   128
 43
0.0
 10
65.4264688492
 20
116.958755716
 10
50.5643341027
 20
127.3935660993
 10
50.5643341027
 20
127.3935660993
 10
40.8983231516
 20
113.6247159674
 10
40.8983231516
 20
113.6247159674
 10
45.190464705
 20
110.6113312585
 10
45.190464705
 20
110.6113312585
 10
52.4534945164
 20
120.957285426
 10
52.4534945164
 20
120.957285426
 10
61.0455042508
 20
114.9227893805
 10
61.0455042508
 20
114.9227893805
 10
61.285029702
 20
114.7218970666
 10
61.4550155061
 20
114.5094148115
 10
61.555461663
 20
114.273752674
 10
61.5902314866
 20
114.0265005953
 10
61.5825048591
 20
113.7869751441
 10
61.555461663
 20
113.5860828302
 10
61.5052385846
 20
113.4199603398
 10
61.4356989374
 20
113.288607673
 10
61.4356989374
 20
113.288607673
 10
61.3622959766
 20
113.1997514572
 10
61.2618498196
 20
113.0993053002
 10
61.1227705253
 20
112.9834058884
 10
60.956648035
 20
112.8520532216
 10
60.755755721
 20
112.7631970058
 10
60.5200935835
 20
112.7631970058
 10
60.2496616225
 20
112.8520532216
 10
59.9444598379
 20
113.0336289668
 10
59.9444598379
 20
113.0336289668
 10
53.1257111053
 20
117.8202746776
 10
53.1257111053
 20
117.8202746776
 10
50.8115861814
 20
114.5248680664
 10
50.8115861814
 20
114.5248680664
 10
52.7277897912
 20
105.3185914491
 10
52.7277897912
 20
105.3185914491
 10
59.7319775827
 20
100.4005930715
 10
59.7319775827
 20
100.4005930715
 10
57.6496514826
 20
108.4208323739
 10
57.6496514826
 20
108.4208323739
 10
58.0900692477
 20
108.8651134527
 10
58.0900692477
 20
108.8651134527
 10
58.6966095032
 20
108.5715016093
 10
59.2799698764
 20
108.3319761581
 10
59.8401503672
 20
108.1504004128
 10
60.3771509756
 20
108.0267743735
 10
60.9025616428
 20
107.9533714126
 10
61.4202456825
 20
107.9301915302
 10
61.9302030948
 20
107.9456447851
 10
62.4324338796
 20
108.0113211185
 10
62.9230747233
 20
108.119493903
 10
63.3943989983
 20
108.2778897659
 10
63.8502700183
 20
108.4787820798
 10
64.2868244698
 20
108.7260341585
 10
64.7040623526
 20
109.0235093157
 10
65.098120353
 20
109.3673442376
 10
65.468998471
 20
109.7652655517
 10
65.8128333929
 20
110.2134099443
 10
65.8128333929
 20
110.2134099443
 10
66.0369055892
 20
110.56110818
 10
66.2377979032
 20
110.9474395529
 10
66.4155103347
 20
111.360814122
 10
66.5739061976
 20
111.8128218283
 10
66.7013955507
 20
112.2841461033
 10
66.7941150802
 20
112.7631970058
 10
66.8443381587
 20
113.2422479082
 10
66.8597914136
 20
113.7290254381
 10
66.8366115312
 20
114.2119396543
 10
66.7709351978
 20
114.6794006156
 10
66.6627624134
 20
115.1314083219
 10
66.5159564917
 20
115.5679627734
 10
66.3227908052
 20
115.9774740287
 10
66.0794020402
 20
116.344488833
 10
65.7780635694
 20
116.6728705
 10
65.42650202
 20
116.958755716
  0
LWPOLYLINE
  5
7B
330
1F
100
AcDbEntity
  8
0
  6
Continuous
 62
     7
100
AcDbPolyline
 90
       72
 70
   128
 43
0.0
 10
50.0814020634
 20
128.9195750224
 10
65.9866825107
 20
117.7545983442
 10
65.9866825107
 20
117.7545983442
 10
66.496639923
 20
117.3450870889
 10
66.9293310607
 20
116.8853527551
 10
67.2847559238
 20
116.3792586566
 10
67.5590511986
 20
115.8268047932
 10
67.76767014
 20
115.2511710476
 10
67.9183393755
 20
114.6794006156
 10
68.0071955913
 20
114.1114934974
 10
68.0381021011
 20
113.5435863791
 10
68.0381021011
 20
113.5435863791
 10
68.0883251796
 20
112.9061396138
 10
68.0767352384
 20
112.2609662209
 10
68.0033322775
 20
111.6157928281
 10
67.8642529833
 20
110.9628928078
 10
67.6788139242
 20
110.3370359837
 10
67.4624683554
 20
109.7691288654
 10
67.2074896493
 20
109.2514448257
 10
66.9216044333
 20
108.7917104919
 10
66.9216044333
 20
108.7917104919
 10
66.554589629
 20
108.3126595894
 10
66.1566683148
 20
107.8876950792
 10
65.7317038046
 20
107.50522702
 10
65.2758327845
 20
107.176845353
 10
64.7967818821
 20
106.8948234507
 10
64.2945510972
 20
106.6591613132
 10
63.76914043
 20
106.4698589405
 10
63.2205498804
 20
106.3269163325
 10
62.6565060759
 20
106.234196803
 10
62.0808723303
 20
106.191700352
 10
61.4936486434
 20
106.1955636657
 10
60.8909717016
 20
106.2535133716
 10
60.3114746422
 20
106.3500962149
 10
59.7899272887
 20
106.4737222542
 10
59.3224663274
 20
106.6282548034
 10
58.9168183858
 20
106.8136938624
 10
58.9168183858
 20
106.8136938624
 10
60.6630361915
 20
98.5577924225
 10
60.6630361915
 20
98.5577924225
 10
60.5780432895
 20
98.6157421285
 10
60.5780432895
 20
98.6157421285
 10
60.6900793876
 20
97.993748618
 10
60.6900793876
 20
97.993748618
 10
51.873997457
 20
104.1827772126
 10
51.873997457
 20
104.1827772126
 10
51.7812779275
 20
104.8395405466
 10
51.7812779275
 20
104.8395405466
 10
51.6808317705
 20
104.862720429
 10
51.6808317705
 20
104.862720429
 10
49.5791891017
 20
114.9923290277
 10
49.5791891017
 20
114.9923290277
 10
52.6389335754
 20
119.3501469145
 10
52.6389335754
 20
119.3501469145
 10
60.5007770149
 20
113.8294715951
 10
60.5007770149
 20
113.8294715951
 10
60.3771509756
 20
113.9144644972
 10
60.3346545245
 20
113.9376443795
 10
60.3076113284
 20
113.8951479285
 10
60.2187551126
 20
113.7715218892
 10
60.2187551126
 20
113.7715218892
 10
53.044581517
 20
118.8092829924
 10
53.044581517
 20
118.8092829924
 10
45.7815517056
 20
108.4594655112
 10
45.7815517056
 20
108.4594655112
 10
39.6736526993
 20
112.7477437509
 10
39.6736526993
 20
112.7477437509
 10
39.5616166012
 20
113.373600575
 10
39.5616166012
 20
113.373600575
 10
39.2950479539
 20
113.559039634
 10
39.2950479539
 20
113.559039634
 10
50.0814198865
 20
128.9195750224
  0
LWPOLYLINE
  5
7C
330
1F
100
AcDbEntity
  8
0
  6
Continuous
 62
     7
100
AcDbPolyline
 90
       40
 70
   128
 43
0.0
 10
75.567305088
 20
104.6037467957
 10
82.1504442359
 20
99.9832235753
 10
82.1504442359
 20
99.9832235753
 10
82.3281566674
 20
99.8518709085
 10
82.4749625892
 20
99.7282448691
 10
82.590862001
 20
99.6123454572
 10
82.6835815306
 20
99.5080359865
 10
82.7415312365
 20
99.4037265159
 10
82.7763010601
 20
99.3110069863
 10
82.7801643738
 20
99.2260140843
 10
82.7531211777
 20
99.1487478097
 10
82.5792720599
 20
98.8203661427
 10
82.3667898047
 20
98.4147182011
 10
82.3667898047
 20
98.4147182011
 10
78.6889151343
 20
93.176064784
 10
78.6889151343
 20
93.176064784
 10
78.5305192714
 20
92.9983523524
 10
78.2987204476
 20
92.7974600385
 10
78.136461271
 20
92.7395103325
 10
77.9201157021
 20
92.7704168424
 10
77.6458204273
 20
92.890179568
 10
77.3135754466
 20
93.0987985094
 10
77.3135754466
 20
93.0987985094
 10
70.7304888516
 20
97.7193217298
 10
70.7304888516
 20
97.7193217298
 10
70.5257332239
 20
97.8854442202
 10
70.3905172434
 20
98.0477033968
 10
70.3325675374
 20
98.202235946
 10
70.3441574786
 20
98.3529051814
 10
70.4561935768
 20
98.6272004562
 10
70.5914095573
 20
98.8628625937
 10
70.5914095573
 20
98.8628625937
 10
74.2963274239
 20
104.1440124619
 10
74.2963274239
 20
104.1440124619
 10
74.5744860124
 20
104.4530775603
 10
74.8178747774
 20
104.7196462076
 10
74.9492274442
 20
104.8085024234
 10
75.1192132483
 20
104.8162290508
 10
75.3239688759
 20
104.7505527174
 10
75.5673576409
 20
104.6037467957
  0
LWPOLYLINE
  5
7D
330
1F
100
AcDbEntity
  8
0
  6
Continuous
 62
     7
100
AcDbPolyline
 90
       76
 70
   128
 43
0.0
 10
69.7337388992
 20
107.3660161123
 10
66.1370088272
 20
102.243262107
 10
66.1370088272
 20
102.243262107
 10
65.8781668074
 20
101.8376141654
 10
65.6540946111
 20
101.4126496552
 10
65.4647922383
 20
100.9606419488
 10
65.3063963754
 20
100.4854543601
 10
65.1866336498
 20
99.9986768302
 10
65.1055040615
 20
99.5196259277
 10
65.0668709242
 20
99.0367117116
 10
65.0668709242
 20
98.5615241228
 10
65.1055040615
 20
98.0979264753
 10
65.1866336498
 20
97.6536453964
 10
65.298669748
 20
97.2286808862
 10
65.4532022971
 20
96.8268962583
 10
65.6502312973
 20
96.4521548265
 10
65.8858934348
 20
96.1199098458
 10
66.1679153371
 20
95.8185713749
 10
66.4885703766
 20
95.559729355
 10
66.4885703766
 20
95.559729355
 10
76.7263517597
 20
88.3701025045
 10
76.7263517597
 20
88.3701025045
 10
77.1435896425
 20
88.1151237984
 10
77.5724174665
 20
87.9258214256
 10
78.0205618591
 20
87.7983320725
 10
78.4802961929
 20
87.7365190529
 10
78.9477571542
 20
87.7287924254
 10
79.4152181154
 20
87.7596989352
 10
79.8749524492
 20
87.8369652098
 10
80.334686783
 20
87.9567279354
 10
80.7866944894
 20
88.1189871121
 10
81.2232489408
 20
88.319879426
 10
81.6443501373
 20
88.5555415635
 10
82.0499980789
 20
88.833700152
 10
82.4286028244
 20
89.1389019367
 10
82.7763010601
 20
89.4595569762
 10
83.0815028447
 20
89.7956652707
 10
83.3557981195
 20
90.1510901338
 10
83.3557981195
 20
90.1510901338
 10
86.9525432016
 20
95.2738441391
 10
86.9525432016
 20
95.2738441391
 10
87.1959319666
 20
95.6524488845
 10
87.4122775354
 20
96.0580968261
 10
87.5977165944
 20
96.4946512776
 10
87.7561124573
 20
96.9543856114
 10
87.8836018104
 20
97.4334365138
 10
87.9647313987
 20
97.9124874163
 10
88.0072278498
 20
98.3915383187
 10
88.0072278498
 20
98.8705892212
 10
87.9647313987
 20
99.3457768099
 10
87.8797384967
 20
99.8132377712
 10
87.7522491436
 20
100.2652454775
 10
87.5822633395
 20
100.7056632427
 10
87.3659177707
 20
101.1229011255
 10
87.0954858096
 20
101.4976425572
 10
86.7709674563
 20
101.8376141654
 10
86.3923627108
 20
102.1389526363
 10
86.3923627108
 20
102.1389526363
 10
76.1545813278
 20
109.3285794869
 10
76.1545813278
 20
109.3285794869
 10
75.8030197784
 20
109.541061742
 10
75.4282783466
 20
109.7033209186
 10
75.0342203462
 20
109.811493703
 10
74.6169824634
 20
109.8655800952
 10
74.1881546395
 20
109.8733067227
 10
73.7477368743
 20
109.8385368991
 10
73.3034557954
 20
109.7574073108
 10
72.8514480891
 20
109.6376445852
 10
72.3994403827
 20
109.4753854086
 10
71.9628859313
 20
109.2744930946
 10
71.5301947936
 20
109.0349676434
 10
71.1129569108
 20
108.7529457412
 10
70.7150355967
 20
108.4400173291
 10
70.3557474198
 20
108.1039090346
 10
70.0273657528
 20
107.7484841715
 10
69.7337539094
 20
107.3660161123
  0
LWPOLYLINE
  5
7E
330
1F
100
AcDbEntity
  8
0
  6
Continuous
 62
     7
100
AcDbPolyline
 90
       80
 70
   128
 43
0.0
 10
65.0938749313
 20
102.9734284019
 10
68.6906592024
 20
108.0961824072
 10
68.6906592024
 20
108.0961824072
 10
69.0151775557
 20
108.5134202899
 10
69.38219236
 20
108.9113416041
 10
69.7955669291
 20
109.2860830358
 10
70.2514379491
 20
109.6415078989
 10
70.738215479
 20
109.9660262522
 10
71.2443095776
 20
110.2441848407
 10
71.7619936174
 20
110.4798469782
 10
72.2989942257
 20
110.6730126647
 10
72.8475847753
 20
110.8159552727
 10
73.4077652661
 20
110.9048114885
 10
73.9718090706
 20
110.9434446258
 10
74.5435795026
 20
110.9241280571
 10
75.1114866208
 20
110.8429984688
 10
75.6639404841
 20
110.6807392922
 10
76.1970777788
 20
110.4412138409
 10
76.7147618185
 20
110.1244221151
 10
76.7147618185
 20
110.1244221151
 10
86.9525432016
 20
102.9347952646
 10
86.9525432016
 20
102.9347952646
 10
87.5243136336
 20
102.4789242445
 10
88.003364536
 20
101.9844200871
 10
88.3819692815
 20
101.4474194787
 10
88.6678544975
 20
100.871785733
 10
88.8764734389
 20
100.2768354187
 10
89.0310059881
 20
99.6857484181
 10
89.1198622038
 20
99.0946614175
 10
89.1546320274
 20
98.5113010443
 10
89.1546320274
 20
98.5113010443
 10
89.2048551059
 20
97.8815809064
 10
89.2009917922
 20
97.2557240823
 10
89.131452145
 20
96.6298672581
 10
89.0078261057
 20
96.0078737477
 10
88.8339769879
 20
95.4090601196
 10
88.617631419
 20
94.8488796288
 10
88.3626527129
 20
94.3311955891
 10
88.061314242
 20
93.8521446866
 10
88.061314242
 20
93.8521446866
 10
84.4645691598
 20
88.7332539951
 10
84.4645691598
 20
88.7332539951
 10
84.1593673752
 20
88.3391959947
 10
83.8116691396
 20
87.9605912492
 10
83.4253377666
 20
87.6051663861
 10
82.9926466289
 20
87.2651947779
 10
82.5290489814
 20
86.9599929932
 10
82.0461347652
 20
86.6895610322
 10
81.5361773529
 20
86.4616255221
 10
81.006903372
 20
86.2684598357
 10
80.4583128224
 20
86.1255172277
 10
79.8865423904
 20
86.0366610119
 10
79.2993187035
 20
86.0057545021
 10
78.692778448
 20
86.0250710707
 10
78.0823748788
 20
86.1177906002
 10
77.4912878782
 20
86.2955030318
 10
76.907927505
 20
86.5582083654
 10
76.3438837005
 20
86.905906601
 10
76.3438837005
 20
86.905906601
 10
66.1022390037
 20
94.0955334516
 10
66.1022390037
 20
94.0955334516
 10
65.7159076307
 20
94.3968719225
 10
65.3720727088
 20
94.7252535895
 10
65.0745975516
 20
95.0806784526
 10
64.8157555318
 20
95.4631465118
 10
64.5994099629
 20
95.8687944534
 10
64.4255608451
 20
96.2821690224
 10
64.2903448646
 20
96.703270219
 10
64.1937620213
 20
97.1359613567
 10
64.1937620213
 20
97.1359613567
 10
64.0778626094
 20
97.487522906
 10
63.9890063937
 20
97.8506743966
 10
63.927193374
 20
98.2331424558
 10
63.8885602367
 20
98.63106377
 10
63.884696923
 20
99.430769712
 10
63.9735531387
 20
100.1995691441
 10
64.1512655703
 20
100.9490520076
 10
64.398517649
 20
101.671491675
 10
64.7153093748
 20
102.3552982052
 10
65.0939141203
 20
102.9734284019
  0
LWPOLYLINE
  5
7F
330
1F
100
AcDbEntity
  8
0
  6
Continuous
 62
     7
100
AcDbPolyline
 90
       28
 70
   128
 43
0.0
 10
75.3393769264
 20
102.62959348
 10
72.067195402
 20
97.9704371222
 10
72.067195402
 20
97.9704371222
 10
77.8737559374
 20
93.8946411376
 10
77.8737559374
 20
93.8946411376
 10
77.7964896628
 20
93.9332742749
 10
77.7230867019
 20
93.9371375887
 10
77.6574103685
 20
93.9100943926
 10
77.5994606626
 20
93.8444180591
 10
77.5994606626
 20
93.8444180591
 10
81.2387021957
 20
98.9710353782
 10
81.2387021957
 20
98.9710353782
 10
81.1962057447
 20
98.9903519468
 10
81.14984598
 20
98.9478554958
 10
81.14984598
 20
98.9478554958
 10
75.1810262679
 20
103.1356875785
 10
75.1810262679
 20
103.1356875785
 10
75.3394221308
 20
103.0275147941
 10
75.451458229
 20
102.9541118332
 10
75.5248611899
 20
102.9116153822
 10
75.551904386
 20
102.900025441
 10
75.551904386
 20
102.900025441
 10
75.4591848565
 20
102.7609461468
 10
75.4591848565
 20
102.7609461468
 10
75.3819185819
 20
102.6991331271
 10
75.3355588171
 20
102.6566366761
 10
75.3239688759
 20
102.6334567937
 10
75.3394221308
 20
102.62959348
  0
LWPOLYLINE
  5
80
330
1F
100
AcDbEntity
  8
0
  6
Continuous
 62
     7
100
AcDbPolyline
 90
       16
 70
   128
 43
0.0
 10
92.7022099495
 20
83.3923441768
 10
86.0457451023
 20
88.0630904757
 10
86.0457451023
 20
88.0630904757
 10
82.5108130398
 20
83.0291926862
 10
82.5108130398
 20
83.0291926862
 10
82.7773816871
 20
82.8437536272
 10
82.7773816871
 20
82.8437536272
 10
82.8894177853
 20
82.217896803
 10
82.8894177853
 20
82.217896803
 10
89.2793386938
 20
77.7325895631
 10
89.2793386938
 20
77.7325895631
 10
92.5670186776
 20
82.418789117
 10
92.5670186776
 20
82.418789117
 10
92.4549825795
 20
83.0407826274
 10
92.4549825795
 20
83.0407826274
 10
92.7022346581
 20
83.3923441768
  0
LWPOLYLINE
  5
81
330
1F
100
AcDbEntity
  8
0
  6
Continuous
 62
     7
100
AcDbPolyline
 90
        8
 70
   128
 43
0.0
 10
86.5286588669
 20
86.5370815526
 10
91.0989594604
 20
83.3266678434
 10
91.0989594604
 20
83.3266678434
 10
88.6843883795
 20
79.8844553104
 10
88.6843883795
 20
79.8844553104
 10
84.1140882375
 20
83.0948690196
 10
84.1140882375
 20
83.0948690196
 10
86.5286593185
 20
86.5370815526
  0
LWPOLYLINE
  5
82
330
1F
100
AcDbEntity
  8
0
  6
Continuous
 62
     7
100
AcDbPolyline
 90
       64
 70
   128
 43
0.0
 10
99.0154147148
 20
86.6799048626
 10
95.4187188154
 20
81.5571508573
 10
95.4187188154
 20
81.5571508573
 10
95.1598767955
 20
81.1515029157
 10
94.9358045992
 20
80.7265384055
 10
94.7465022265
 20
80.2745306991
 10
94.5881063636
 20
79.7993431104
 10
94.4683436379
 20
79.3125655805
 10
94.3872140496
 20
78.833514678
 10
94.3485809123
 20
78.3506004619
 10
94.3485809123
 20
77.8754128731
 10
94.3872140496
 20
77.4118152256
 10
94.4683436379
 20
76.9675341467
 10
94.5803797361
 20
76.5425696365
 10
94.7349122853
 20
76.1407850086
 10
94.9319412855
 20
75.7660435768
 10
95.167603423
 20
75.4337985961
 10
95.4496253252
 20
75.1324601252
 10
95.7702803648
 20
74.8736181053
 10
95.7702803648
 20
74.8736181053
 10
109.6125334575
 20
65.153520762
 10
109.6125334575
 20
65.153520762
 10
112.0271045384
 20
68.595733295
 10
112.0271045384
 20
68.595733295
 10
100.0121988397
 20
77.0332104801
 10
100.0121988397
 20
77.0332104801
 10
99.8074432121
 20
77.1993329705
 10
99.6722272315
 20
77.3615921471
 10
99.6142775256
 20
77.5161246963
 10
99.6258674668
 20
77.6667939317
 10
99.7379035649
 20
77.9410892065
 10
99.8731195455
 20
78.176751344
 10
99.8731195455
 20
78.176751344
 10
103.578037412
 20
83.4579012122
 10
103.578037412
 20
83.4579012122
 10
103.8561960005
 20
83.7669663106
 10
104.0995847655
 20
84.0335349579
 10
104.2309374323
 20
84.1223911737
 10
104.4009232364
 20
84.1301178011
 10
104.6056788641
 20
84.0644414677
 10
104.849067629
 20
83.917635546
 10
104.849067629
 20
83.917635546
 10
116.8639733277
 20
75.4801583609
 10
116.8639733277
 20
75.4801583609
 10
119.2785444086
 20
78.9223708938
 10
119.2785444086
 20
78.9223708938
 10
105.4362913159
 20
88.6424682372
 10
105.4362913159
 20
88.6424682372
 10
105.0847297665
 20
88.8549504923
 10
104.7099883348
 20
89.0172096689
 10
104.3159303344
 20
89.1253824533
 10
103.8986924516
 20
89.1794688456
 10
103.4698646276
 20
89.187195473
 10
103.0294468624
 20
89.1524256495
 10
102.5851657836
 20
89.0712960611
 10
102.1331580772
 20
88.9515333355
 10
101.6811503709
 20
88.7892741589
 10
101.2445959194
 20
88.5883818449
 10
100.8119047817
 20
88.3488563937
 10
100.3946668989
 20
88.0668344915
 10
99.9967455848
 20
87.7539060794
 10
99.637457408
 20
87.4177977849
 10
99.309075741
 20
87.0623729218
 10
99.0154638975
 20
86.6799048626
  0
LWPOLYLINE
  5
83
330
1F
100
AcDbEntity
  8
0
  6
Continuous
 62
     7
100
AcDbPolyline
 90
       73
 70
   128
 43
0.0
 10
94.3756103516
 20
82.2873171522
 10
97.9723691906
 20
87.4100711575
 10
97.9723691906
 20
87.4100711575
 10
98.2968875438
 20
87.8273090402
 10
98.6639023481
 20
88.2252303544
 10
99.0772769172
 20
88.5999717861
 10
99.5331479373
 20
88.9553966492
 10
100.0199254672
 20
89.2799150025
 10
100.5260195657
 20
89.558073591
 10
101.0437036055
 20
89.7937357285
 10
101.5807042139
 20
89.986901415
 10
102.1292947635
 20
90.129844023
 10
102.6894752543
 20
90.2187002388
 10
103.2535190588
 20
90.2573333761
 10
103.8252894907
 20
90.2380168074
 10
104.3931966089
 20
90.1568872191
 10
104.9456504723
 20
89.9946280425
 10
105.4787877669
 20
89.7551025912
 10
105.9964718067
 20
89.4383108654
 10
105.9964718067
 20
89.4383108654
 10
120.8818196063
 20
78.9880472272
 10
120.8818196063
 20
78.9880472272
 10
120.6345675276
 20
78.6364856778
 10
120.6345675276
 20
78.6364856778
 10
120.742740312
 20
78.0106288537
 10
120.742740312
 20
78.0106288537
 10
117.4550603283
 20
73.3282926136
 10
117.4550603283
 20
73.3282926136
 10
104.4627362561
 20
82.4495763288
 10
104.4627362561
 20
82.4495763288
 10
104.6249954327
 20
82.3414035444
 10
104.7447581583
 20
82.2680005835
 10
104.8220244329
 20
82.23323076
 10
104.8567942565
 20
82.23323076
 10
104.8683841977
 20
82.2486840149
 10
104.8297510604
 20
82.2216408188
 10
104.8297510604
 20
82.2216408188
 10
104.7602114132
 20
82.0980147794
 10
104.7602114132
 20
82.0980147794
 10
104.6597652563
 20
81.9937053087
 10
104.6327220602
 20
81.9627987989
 10
104.6327220602
 20
81.9627987989
 10
101.3489053901
 20
77.2843258725
 10
101.3489053901
 20
77.2843258725
 10
113.6303797361
 20
68.6614096284
 10
113.6303797361
 20
68.6614096284
 10
113.3831276574
 20
68.309848079
 10
113.3831276574
 20
68.309848079
 10
113.4951637556
 20
67.6878545685
 10
113.4951637556
 20
67.6878545685
 10
110.2074837718
 20
63.0016550147
 10
110.2074837718
 20
63.0016550147
 10
95.3839489918
 20
73.4094222019
 10
95.3839489918
 20
73.4094222019
 10
94.9976176189
 20
73.7107606728
 10
94.653782697
 20
74.0391423398
 10
94.3563075398
 20
74.3945672029
 10
94.0974655199
 20
74.7770352621
 10
93.8811199511
 20
75.1826832037
 10
93.7072708332
 20
75.5960577728
 10
93.5720548527
 20
76.0171589693
 10
93.4754720095
 20
76.449850107
 10
93.4754720095
 20
76.449850107
 10
93.3595725976
 20
76.8014116563
 10
93.2707163818
 20
77.1645631469
 10
93.2089033621
 20
77.5470312061
 10
93.1702702248
 20
77.9449525203
 10
93.1664069111
 20
78.7446584623
 10
93.2552631269
 20
79.5134578944
 10
93.4329755584
 20
80.2629407579
 10
93.6802276371
 20
80.9853804254
 10
93.997019363
 20
81.6691869555
 10
94.3756241084
 20
82.2873171522
  0
LWPOLYLINE
  5
84
330
1F
100
AcDbEntity
  8
0
  6
Continuous
 62
     7
100
AcDbPolyline
 90
       40
 70
   128
 43
0.0
 10
125.8510351181
 20
69.0807005807
 10
132.4342082845
 20
64.4601773603
 10
132.4342082845
 20
64.4601773603
 10
132.6119207161
 20
64.3288246935
 10
132.7587266378
 20
64.2051986541
 10
132.8746260497
 20
64.0892992423
 10
132.9673455792
 20
63.9849897716
 10
133.0252952851
 20
63.8806803009
 10
133.0600651087
 20
63.7879607714
 10
133.0639284224
 20
63.7029678693
 10
133.0368852263
 20
63.6257015947
 10
132.8630361085
 20
63.2973199277
 10
132.6505538533
 20
62.8916719861
 10
132.6505538533
 20
62.8916719861
 10
128.9726791829
 20
57.653018569
 10
128.9726791829
 20
57.653018569
 10
128.81428332
 20
57.4753061374
 10
128.5824844962
 20
57.2744138235
 10
128.4202253196
 20
57.2164641175
 10
128.2038797507
 20
57.2473706274
 10
127.9295844759
 20
57.367133353
 10
127.5973394952
 20
57.5757522944
 10
127.5973394952
 20
57.5757522944
 10
121.0142529002
 20
62.1962755148
 10
121.0142529002
 20
62.1962755148
 10
120.8094972725
 20
62.3623980052
 10
120.674281292
 20
62.5246571818
 10
120.6163315861
 20
62.679189731
 10
120.6279215272
 20
62.8298589665
 10
120.7399576254
 20
63.1041542412
 10
120.8751736059
 20
63.3398163787
 10
120.8751736059
 20
63.3398163787
 10
124.5800914725
 20
68.6209662469
 10
124.5800914725
 20
68.6209662469
 10
124.858250061
 20
68.9300313453
 10
125.101638826
 20
69.1965999926
 10
125.2329914928
 20
69.2854562084
 10
125.4029772969
 20
69.2931828358
 10
125.6077329245
 20
69.2275065024
 10
125.8511216895
 20
69.0807005807
  0
LWPOLYLINE
  5
85
330
1F
100
AcDbEntity
  8
0
  6
Continuous
 62
     7
100
AcDbPolyline
 90
       76
 70
   128
 43
0.0
 10
120.0174689293
 20
71.8429698973
 10
116.4207728759
 20
66.720215892
 10
116.4207728759
 20
66.720215892
 10
116.161930856
 20
66.3145679504
 10
115.9378586597
 20
65.8896034402
 10
115.7485562869
 20
65.4375957338
 10
115.590160424
 20
64.9624081451
 10
115.4703976984
 20
64.4756306152
 10
115.3892681101
 20
63.9965797128
 10
115.3506349728
 20
63.5136654966
 10
115.3506349728
 20
63.0384779078
 10
115.3892681101
 20
62.5748802603
 10
115.4703976984
 20
62.1305991814
 10
115.5824337966
 20
61.7056346712
 10
115.7369663457
 20
61.3038500433
 10
115.9339953459
 20
60.9291086116
 10
116.1696574834
 20
60.5968636308
 10
116.4516793857
 20
60.2955251599
 10
116.7723344252
 20
60.03668314
 10
116.7723344252
 20
60.03668314
 10
127.0101158083
 20
52.8470562895
 10
127.0101158083
 20
52.8470562895
 10
127.4273536911
 20
52.5920775834
 10
127.8561815151
 20
52.4027752106
 10
128.3043259077
 20
52.2752858575
 10
128.7640602415
 20
52.2134728379
 10
129.2315212028
 20
52.2057462104
 10
129.698982164
 20
52.2366527203
 10
130.1587164978
 20
52.3139189948
 10
130.6184508316
 20
52.4336817205
 10
131.070458538
 20
52.5959408971
 10
131.5070129894
 20
52.796833211
 10
131.9281141859
 20
53.0324953485
 10
132.3337621275
 20
53.310653937
 10
132.712366873
 20
53.6158557217
 10
133.0600651087
 20
53.9365107612
 10
133.3652668933
 20
54.2726190557
 10
133.6395621681
 20
54.6280439188
 10
133.6395621681
 20
54.6280439188
 10
137.2363072502
 20
59.7507979241
 10
137.2363072502
 20
59.7507979241
 10
137.4796960152
 20
60.1294026696
 10
137.696041584
 20
60.5350506111
 10
137.881480643
 20
60.9716050626
 10
138.039876506
 20
61.4313393964
 10
138.167365859
 20
61.9103902988
 10
138.2484954473
 20
62.3894412013
 10
138.2909918984
 20
62.8684921037
 10
138.2909918984
 20
63.3475430062
 10
138.2484954473
 20
63.8227305949
 10
138.1635025453
 20
64.2901915562
 10
138.0360131922
 20
64.7421992625
 10
137.8660273881
 20
65.1826170277
 10
137.6496818193
 20
65.5998549105
 10
137.3792498582
 20
65.9745963422
 10
137.0547315049
 20
66.3145679504
 10
136.6761267595
 20
66.6159064213
 10
136.6761267595
 20
66.6159064213
 10
126.4383453764
 20
73.8055332719
 10
126.4383453764
 20
73.8055332719
 10
126.086783827
 20
74.018015527
 10
125.7120423952
 20
74.1802747036
 10
125.3179843948
 20
74.288447488
 10
124.900746512
 20
74.3425338803
 10
124.4719186881
 20
74.3502605077
 10
124.0315009229
 20
74.3154906842
 10
123.587219844
 20
74.2343610958
 10
123.1352121377
 20
74.1145983702
 10
122.6832044313
 20
73.9523391936
 10
122.2466499799
 20
73.7514468797
 10
121.8139588422
 20
73.5119214284
 10
121.3967209594
 20
73.2298995262
 10
120.9987996453
 20
72.9169711141
 10
120.6395114684
 20
72.5808628196
 10
120.3111298014
 20
72.2254379565
 10
120.017517958
 20
71.8429698973
  0
LWPOLYLINE
  5
86
330
1F
100
AcDbEntity
  8
0
  6
Continuous
 62
     7
100
AcDbPolyline
 90
       80
 70
   128
 43
0.0
 10
115.377664566
 20
67.4503821869
 10
118.974423251
 20
72.5731361922
 10
118.974423251
 20
72.5731361922
 10
119.2989416043
 20
72.9903740749
 10
119.6659564086
 20
73.3882953891
 10
120.0793309777
 20
73.7630368208
 10
120.5352019977
 20
74.118461684
 10
121.0219795277
 20
74.4429800372
 10
121.5280736262
 20
74.7211386257
 10
122.045757666
 20
74.9568007632
 10
122.5827582744
 20
75.1499664497
 10
123.1313488239
 20
75.2929090577
 10
123.6915293147
 20
75.3817652735
 10
124.2555731192
 20
75.4203984108
 10
124.8273435512
 20
75.4010818421
 10
125.3952506694
 20
75.3199522538
 10
125.9477045327
 20
75.1576930772
 10
126.4808418274
 20
74.918167626
 10
126.9985258671
 20
74.6013759001
 10
126.9985258671
 20
74.6013759001
 10
137.2363072502
 20
67.4117490496
 10
137.2363072502
 20
67.4117490496
 10
137.8080776822
 20
66.9558780295
 10
138.2871285846
 20
66.4613738722
 10
138.6657333301
 20
65.9243732638
 10
138.9516185461
 20
65.3487395181
 10
139.1602374875
 20
64.7537892037
 10
139.3147700367
 20
64.1627022031
 10
139.4036262525
 20
63.5716152025
 10
139.438396076
 20
62.9882548294
 10
139.438396076
 20
62.9882548294
 10
139.4886191545
 20
62.3585346915
 10
139.4847558408
 20
61.7326778673
 10
139.4152161936
 20
61.1068210431
 10
139.2915901543
 20
60.4848275327
 10
139.1177410365
 20
59.8860139046
 10
138.9013954676
 20
59.3258334138
 10
138.6464167615
 20
58.8081493741
 10
138.3450782906
 20
58.3290984716
 10
138.3450782906
 20
58.3290984716
 10
134.7483332084
 20
53.2102077801
 10
134.7483332084
 20
53.2102077801
 10
134.4431314238
 20
52.8161497797
 10
134.0954331882
 20
52.4375450342
 10
133.7091018152
 20
52.0821201711
 10
133.2764106775
 20
51.7421485629
 10
132.81281303
 20
51.4369467783
 10
132.3298988138
 20
51.1665148172
 10
131.8199414015
 20
50.9385793072
 10
131.2906674206
 20
50.7454136207
 10
130.742076871
 20
50.6024710127
 10
130.170306439
 20
50.5136147969
 10
129.5830827522
 20
50.4827082871
 10
128.9765424966
 20
50.5020248557
 10
128.3661389274
 20
50.5947443852
 10
127.7750519268
 20
50.7724568168
 10
127.1916915536
 20
51.0351621504
 10
126.6276477491
 20
51.382860386
 10
126.6276477491
 20
51.382860386
 10
116.3860030523
 20
58.5724872366
 10
116.3860030523
 20
58.5724872366
 10
115.9996716793
 20
58.8738257075
 10
115.6558367574
 20
59.2022073745
 10
115.3583616003
 20
59.5576322376
 10
115.0995195804
 20
59.9401002968
 10
114.8831740115
 20
60.3457482384
 10
114.7093248937
 20
60.7591228075
 10
114.5741089132
 20
61.180224004
 10
114.4775260699
 20
61.6129151417
 10
114.4775260699
 20
61.6129151417
 10
114.3616266581
 20
61.9644766911
 10
114.2727704423
 20
62.3276281816
 10
114.2109574226
 20
62.7100962408
 10
114.1723242853
 20
63.108017555
 10
114.1684609716
 20
63.907723497
 10
114.2573171874
 20
64.6765229291
 10
114.4350296189
 20
65.4260057927
 10
114.6822816976
 20
66.1484454601
 10
114.9990734234
 20
66.8322519902
 10
115.3776781689
 20
67.4503821869
  0
LWPOLYLINE
  5
87
330
1F
100
AcDbEntity
  8
0
  6
Continuous
 62
     7
100
AcDbPolyline
 90
       28
 70
   128
 43
0.0
 10
125.6231069565
 20
67.106547265
 10
122.3509594506
 20
62.4473909072
 10
122.3509594506
 20
62.4473909072
 10
128.157519986
 20
58.3715949226
 10
128.157519986
 20
58.3715949226
 10
128.0802537114
 20
58.4102280599
 10
128.0068507505
 20
58.4140913737
 10
127.9411744171
 20
58.3870481776
 10
127.8832247112
 20
58.3213718442
 10
127.8832247112
 20
58.3213718442
 10
131.5224662443
 20
63.4479891632
 10
131.5224662443
 20
63.4479891632
 10
131.4799697933
 20
63.4673057318
 10
131.4336100286
 20
63.4248092808
 10
131.4336100286
 20
63.4248092808
 10
125.4647903165
 20
67.6126413635
 10
125.4647903165
 20
67.6126413635
 10
125.6231861794
 20
67.5044685791
 10
125.7352222776
 20
67.4310656182
 10
125.8086252385
 20
67.3885691672
 10
125.8356684346
 20
67.376979226
 10
125.8356684346
 20
67.376979226
 10
125.7429489051
 20
67.2378999318
 10
125.7429489051
 20
67.2378999318
 10
125.6656826305
 20
67.1760869121
 10
125.6193228657
 20
67.1335904611
 10
125.6077329245
 20
67.1104105787
 10
125.6231861794
 20
67.106547265
  0
LWPOLYLINE
  5
88
330
1F
100
AcDbEntity
  8
0
  6
Continuous
 62
     7
100
AcDbPolyline
 90
       16
 70
   128
 43
0.0
 10
142.9859399796
 20
47.8692979618
 10
136.3295091509
 20
52.5400442607
 10
136.3295091509
 20
52.5400442607
 10
132.7945770884
 20
47.5061464712
 10
132.7945770884
 20
47.5061464712
 10
133.0611457358
 20
47.3207074122
 10
133.0611457358
 20
47.3207074122
 10
133.1731818339
 20
46.6948505881
 10
133.1731818339
 20
46.6948505881
 10
139.5631027424
 20
42.2095433481
 10
139.5631027424
 20
42.2095433481
 10
142.8507827262
 20
46.895742902
 10
142.8507827262
 20
46.895742902
 10
142.7387466281
 20
47.5177364124
 10
142.7387466281
 20
47.5177364124
 10
142.9859987068
 20
47.8692979618
  0
LWPOLYLINE
  5
89
330
1F
100
AcDbEntity
  8
0
  6
Continuous
 62
     7
100
AcDbPolyline
 90
        8
 70
   128
 43
0.0
 10
136.8123292923
 20
51.0140353376
 10
141.382723509
 20
47.8036216284
 10
141.382723509
 20
47.8036216284
 10
138.9681524281
 20
44.3614090955
 10
138.9681524281
 20
44.3614090955
 10
134.3978522861
 20
47.5718228046
 10
134.3978522861
 20
47.5718228046
 10
136.8124233671
 20
51.0140353376
  0
LWPOLYLINE
  5
8A
330
1F
100
AcDbEntity
  8
0
  6
Continuous
 62
     7
100
AcDbPolyline
 90
       66
 70
   128
 43
0.0
 10
165.0112867355
 20
46.5942851331
 10
158.312338877
 20
37.0519002213
 10
158.312338877
 20
37.0519002213
 10
158.254389171
 20
36.9669073193
 10
158.254389171
 20
36.9669073193
 10
158.0959933081
 20
36.7891948877
 10
157.8641944844
 20
36.5883025738
 10
157.7019353077
 20
36.5303528678
 10
157.4855897389
 20
36.5612593777
 10
157.2112944641
 20
36.6810221033
 10
156.8790494834
 20
36.8896410447
 10
156.8790494834
 20
36.8896410447
 10
150.2959628883
 20
41.5101642651
 10
150.2959628883
 20
41.5101642651
 10
150.0912072607
 20
41.6762867555
 10
149.9559912801
 20
41.8385459321
 10
149.8980415742
 20
41.9930784813
 10
149.9096315154
 20
42.1437477168
 10
150.0216676135
 20
42.4180429916
 10
150.1568835941
 20
42.6537051291
 10
150.1568835941
 20
42.6537051291
 10
156.9138193069
 20
52.2810829429
 10
156.9138193069
 20
52.2810829429
 10
152.343519165
 20
55.4914966521
 10
152.343519165
 20
55.4914966521
 10
145.702482864
 20
46.0341046423
 10
145.702482864
 20
46.0341046423
 10
145.4436408441
 20
45.6284567007
 10
145.2195686478
 20
45.2034921905
 10
145.0302662751
 20
44.7514844842
 10
144.8718704122
 20
44.2762968954
 10
144.7521076866
 20
43.7895193655
 10
144.6709780982
 20
43.3104684631
 10
144.6323449609
 20
42.8275542469
 10
144.6323449609
 20
42.3523666582
 10
144.6709780982
 20
41.8887690106
 10
144.7521076866
 20
41.4444879317
 10
144.8641437847
 20
41.0195234215
 10
145.0186763339
 20
40.6177387936
 10
145.2157053341
 20
40.2429973619
 10
145.4513674716
 20
39.9107523811
 10
145.7333893738
 20
39.6094139102
 10
146.0540444134
 20
39.3505718904
 10
146.0540444134
 20
39.3505718904
 10
156.2918257965
 20
32.1609450398
 10
156.2918257965
 20
32.1609450398
 10
156.7090636793
 20
31.9059663337
 10
157.1378915032
 20
31.7166639609
 10
157.5860358958
 20
31.5891746079
 10
158.0457702296
 20
31.5273615882
 10
158.5132311909
 20
31.5196349607
 10
158.9806921522
 20
31.5505414706
 10
159.440426486
 20
31.6278077452
 10
159.9001608198
 20
31.7475704708
 10
160.3521685261
 20
31.9098296474
 10
160.7887229776
 20
32.1107219613
 10
161.2098241741
 20
32.3463840988
 10
161.6154721157
 20
32.6245426874
 10
161.9940768612
 20
32.929744472
 10
162.3417750968
 20
33.2503995115
 10
162.6469768814
 20
33.586507806
 10
162.9212721562
 20
33.9419326691
 10
162.9212721562
 20
33.9419326691
 10
169.5623084572
 20
43.3993246788
 10
169.5623084572
 20
43.3993246788
 10
165.0113248839
 20
46.5942851331
  0
LWPOLYLINE
  5
8B
330
1F
100
AcDbEntity
  8
0
  6
Continuous
 62
     7
100
AcDbPolyline
 90
       66
 70
   128
 43
0.0
 10
164.5283699036
 20
48.12415737
 10
171.1655836549
 20
43.4650010122
 10
171.1655836549
 20
43.4650010122
 10
170.9183315762
 20
43.1134394629
 10
170.9183315762
 20
43.1134394629
 10
171.0265043607
 20
42.4875826387
 10
171.0265043607
 20
42.4875826387
 10
164.0300431966
 20
32.5240965304
 10
164.0300431966
 20
32.5240965304
 10
163.724841412
 20
32.13003853
 10
163.3771431763
 20
31.7514337845
 10
162.9908118034
 20
31.3960089214
 10
162.5581206657
 20
31.0560373132
 10
162.0945230181
 20
30.7508355286
 10
161.6116088019
 20
30.4804035675
 10
161.1016513897
 20
30.2524680575
 10
160.5723774087
 20
30.059302371
 10
160.0237868591
 20
29.916359763
 10
159.4520164272
 20
29.8275035472
 10
158.8647927403
 20
29.7965970374
 10
158.2582524848
 20
29.815913606
 10
157.6478489155
 20
29.9086331355
 10
157.0567619149
 20
30.0863455671
 10
156.4734015418
 20
30.3490509007
 10
155.9093577373
 20
30.6967491364
 10
155.9093577373
 20
30.6967491364
 10
145.6677130404
 20
37.8863759869
 10
145.6677130404
 20
37.8863759869
 10
145.2813816675
 20
38.1877144578
 10
144.9375467456
 20
38.5160961248
 10
144.6400715884
 20
38.8715209879
 10
144.3812295685
 20
39.2539890471
 10
144.1648839997
 20
39.6596369887
 10
143.9910348818
 20
40.0730115578
 10
143.8558189013
 20
40.4941127543
 10
143.7592360581
 20
40.926803892
 10
143.7592360581
 20
40.926803892
 10
143.6433366462
 20
41.2783654414
 10
143.5544804304
 20
41.6415169319
 10
143.4926674107
 20
42.0239849911
 10
143.4540342735
 20
42.4219063053
 10
143.4501709597
 20
43.2216122473
 10
143.5390271755
 20
43.9904116794
 10
143.7167396071
 20
44.739894543
 10
143.9639916857
 20
45.4623342104
 10
144.2807834116
 20
46.1461407405
 10
144.659388157
 20
46.7642709372
 10
144.659388157
 20
46.7642709372
 10
151.8606049488
 20
57.0175055752
 10
151.8606049488
 20
57.0175055752
 10
158.5170945046
 20
52.3467592763
 10
158.5170945046
 20
52.3467592763
 10
158.269842426
 20
51.9951977269
 10
158.269842426
 20
51.9951977269
 10
158.3780152104
 20
51.3693409027
 10
158.3780152104
 20
51.3693409027
 10
151.6326694387
 20
41.7612796575
 10
151.6326694387
 20
41.7612796575
 10
157.4392299741
 20
37.685483673
 10
157.4392299741
 20
37.685483673
 10
157.3619636995
 20
37.7241168103
 10
157.2885607387
 20
37.727980124
 10
157.2228844053
 20
37.7009369279
 10
157.1649346993
 20
37.6352605945
 10
157.1649346993
 20
37.6352605945
 10
164.5284106677
 20
48.12415737
  0
LWPOLYLINE
  5
8C
330
1F
100
AcDbEntity
  8
0
  6
Continuous
 62
     7
100
AcDbPolyline
 90
       42
 70
   128
 43
0.0
 10
192.5114393234
 20
28.384677282
 10
184.5569096683
 20
33.9710289348
 10
184.5569096683
 20
33.9710289348
 10
175.6867413455
 20
31.911882717
 10
175.6867413455
 20
31.911882717
 10
179.0787307999
 20
36.7448881926
 10
179.0787307999
 20
36.7448881926
 10
178.9705580155
 20
37.366881703
 10
178.9705580155
 20
37.366881703
 10
179.2178100942
 20
37.7184432524
 10
179.2178100942
 20
37.7184432524
 10
172.8626590092
 20
42.1805706099
 10
172.8626590092
 20
42.1805706099
 10
162.0762870766
 20
26.8200352216
 10
162.0762870766
 20
26.8200352216
 10
162.3428557239
 20
26.6345961625
 10
162.3428557239
 20
26.6345961625
 10
162.4548918221
 20
26.0087393384
 10
162.4548918221
 20
26.0087393384
 10
168.5434742597
 20
21.7359143536
 10
168.5434742597
 20
21.7359143536
 10
172.681083264
 20
27.6313311047
 10
172.681083264
 20
27.6313311047
 10
173.7666744219
 20
18.6143568602
 10
173.7666744219
 20
18.6143568602
 10
173.851667324
 20
18.5525438405
 10
173.851667324
 20
18.5525438405
 10
173.9637034221
 20
17.9305503301
 10
173.9637034221
 20
17.9305503301
 10
181.748280587
 20
12.4639614029
 10
181.748280587
 20
12.4639614029
 10
181.6401078026
 20
13.0859549133
 10
181.6401078026
 20
13.0859549133
 10
181.7251007046
 20
13.0241418936
 10
181.7251007046
 20
13.0241418936
 10
179.7857172124
 20
25.2592564748
 10
179.7857172124
 20
25.2592564748
 10
192.2642205586
 20
27.442028732
 10
192.2642205586
 20
27.442028732
 10
192.1483211467
 20
28.1026553797
 10
192.1483211467
 20
28.1026553797
 10
192.5114726373
 20
28.384677282
  0
LWPOLYLINE
  5
8D
330
1F
100
AcDbEntity
  8
0
  6
Continuous
 62
     7
100
AcDbPolyline
 90
       22
 70
   128
 43
0.0
 10
184.5066547394
 20
32.8158981297
 10
190.4793696156
 20
28.6242027332
 10
190.4793696156
 20
28.6242027332
 10
178.4915071131
 20
26.7389056332
 10
178.4915071131
 20
26.7389056332
 10
180.8133586645
 20
14.8553526014
 10
180.8133586645
 20
14.8553526014
 10
174.836812325
 20
19.0509113116
 10
174.836812325
 20
19.0509113116
 10
172.3874714205
 20
30.212024676
 10
172.3874714205
 20
30.212024676
 10
167.9485239454
 20
23.8877801009
 10
167.9485239454
 20
23.8877801009
 10
163.6795622743
 20
26.885711555
 10
163.6795622743
 20
26.885711555
 10
173.3455732254
 20
40.6545616868
 10
173.3455732254
 20
40.6545616868
 10
177.6145348965
 20
37.6566302327
 10
177.6145348965
 20
37.6566302327
 10
173.1601341664
 20
31.3092057752
 10
173.1601341664
 20
31.3092057752
 10
184.5066865898
 20
32.8158981297
  0
CIRCLE
  5
B8
330
1F
100
AcDbEntity
  8
0
  6
Continuous
 62
     7
370
    15
100
AcDbCircle
 10
-141.4901654914
 20
242.3057659504
 30
0.0
 40
19.00000000000011
  0
CIRCLE
  5
B9
330
1F
100
AcDbEntity
  8
0
  6
Continuous
 62
     7
370
    15
100
AcDbCircle
 10
-641.4901654914
 20
-60.6942340496
 30
0.0
 40
18.99999999999981
  0
CIRCLE
  5
BA
330
1F
100
AcDbEntity
  8
0
  6
Continuous
 62
     7
370
    15
100
AcDbCircle
 10
-141.4901654914
 20
-60.6942340496
 30
0.0
 40
18.99999999999999
  0
CIRCLE
  5
CB
330
1F
100
AcDbEntity
  8
0
  6
Continuous
 62
     7
370
    15
100
AcDbCircle
 10
-211.4901654914
 20
-60.6942340496
 30
0.0
 40
19.0
  0
CIRCLE
  5
CC
330
1F
100
AcDbEntity
  8
0
  6
Continuous
 62
     7
370
    15
100
AcDbCircle
 10
288.5098345086
 20
-60.6942340496
 30
0.0
 40
19.00000000000003
  0
CIRCLE
  5
CD
330
1F
100
AcDbEntity
  8
0
  6
Continuous
 62
     7
370
    15
100
AcDbCircle
 10
-211.4901654914
 20
242.3057659504
 30
0.0
 40
19.00000000000011
  0
LINE
  5
F8
330
1F
100
AcDbEntity
  8
0
  6
Continuous
 62
     7
370
    15
100
AcDbLine
 10
-420.4901654914
 20
-135.5216485697
 30
0.0
 11
-420.4901654914
 21
-215.5216485697
 31
0.0
  0
LINE
  5
F9
330
1F
100
AcDbEntity
  8
0
  6
Continuous
 62
     7
370
    15
100
AcDbLine
 10
-426.4901654914
 20
-135.5216485697
 30
0.0
 11
-420.4901654914
 21
-135.5216485697
 31
0.0
  0
LINE
  5
FA
330
1F
100
AcDbEntity
  8
0
  6
Continuous
 62
     7
370
    15
100
AcDbLine
 10
-426.4901654914
 20
-215.5216485697
 30
0.0
 11
-426.4901654914
 21
-135.5216485697
 31
0.0
  0
LINE
  5
FB
330
1F
100
AcDbEntity
  8
0
  6
Continuous
 62
     7
370
    15
100
AcDbLine
 10
-420.4901654914
 20
-215.5216485697
 30
0.0
 11
-426.4901654914
 21
-215.5216485697
 31
0.0
  0
LINE
  5
FC
330
1F
100
AcDbEntity
  8
0
  6
Continuous
 62
     7
370
    15
100
AcDbLine
 10
-426.4901654914
 20
-425.5216485697
 30
0.0
 11
-426.4901654914
 21
-345.5216485697
 31
0.0
  0
LINE
  5
FD
330
1F
100
AcDbEntity
  8
0
  6
Continuous
 62
     7
370
    15
100
AcDbLine
 10
-420.4901654914
 20
-425.5216485697
 30
0.0
 11
-426.4901654914
 21
-425.5216485697
 31
0.0
  0
LINE
  5
FE
330
1F
100
AcDbEntity
  8
0
  6
Continuous
 62
     7
370
    15
100
AcDbLine
 10
-420.4901654914
 20
-345.5216485697
 30
0.0
 11
-420.4901654914
 21
-425.5216485697
 31
0.0
  0
LINE
  5
FF
330
1F
100
AcDbEntity
  8
0
  6
Continuous
 62
     7
370
    15
100
AcDbLine
 10
-426.4901654914
 20
-345.5216485697
 30
0.0
 11
-420.4901654914
 21
-345.5216485697
 31
0.0
  0
LINE
  5
100
330
1F
100
AcDbEntity
  8
0
  6
Continuous
 62
     7
370
    15
100
AcDbLine
 10
-580.4901654914
 20
-135.5216485697
 30
0.0
 11
-580.4901654914
 21
-215.5216485697
 31
0.0
  0
LINE
  5
101
330
1F
100
AcDbEntity
  8
0
  6
Continuous
 62
     7
370
    15
100
AcDbLine
 10
-586.4901654914
 20
-135.5216485697
 30
0.0
 11
-580.4901654914
 21
-135.5216485697
 31
0.0
  0
LINE
  5
102
330
1F
100
AcDbEntity
  8
0
  6
Continuous
 62
     7
370
    15
100
AcDbLine
 10
-586.4901654914
 20
-215.5216485697
 30
0.0
 11
-586.4901654914
 21
-135.5216485697
 31
0.0
  0
LINE
  5
103
330
1F
100
AcDbEntity
  8
0
  6
Continuous
 62
     7
370
    15
100
AcDbLine
 10
-580.4901654914
 20
-215.5216485697
 30
0.0
 11
-586.4901654914
 21
-215.5216485697
 31
0.0
  0
LINE
  5
104
330
1F
100
AcDbEntity
  8
0
  6
Continuous
 62
     7
370
    15
100
AcDbLine
 10
-586.4901654914
 20
-345.5216485697
 30
0.0
 11
-580.4901654914
 21
-345.5216485697
 31
0.0
  0
LINE
  5
105
330
1F
100
AcDbEntity
  8
0
  6
Continuous
 62
     7
370
    15
100
AcDbLine
 10
-586.4901654914
 20
-425.5216485697
 30
0.0
 11
-586.4901654914
 21
-345.5216485697
 31
0.0
  0
LINE
  5
106
330
1F
100
AcDbEntity
  8
0
  6
Continuous
 62
     7
370
    15
100
AcDbLine
 10
-580.4901654914
 20
-425.5216485697
 30
0.0
 11
-586.4901654914
 21
-425.5216485697
 31
0.0
  0
LINE
  5
107
330
1F
100
AcDbEntity
  8
0
  6
Continuous
 62
     7
370
    15
100
AcDbLine
 10
-580.4901654914
 20
-345.5216485697
 30
0.0
 11
-580.4901654914
 21
-425.5216485697
 31
0.0
  0
LINE
  5
108
330
1F
100
AcDbEntity
  8
0
  6
Continuous
 62
     7
370
    15
100
AcDbLine
 10
-266.4901654914
 20
-635.5216485697
 30
0.0
 11
-266.4901654914
 21
-555.5216485697
 31
0.0
  0
LINE
  5
109
330
1F
100
AcDbEntity
  8
0
  6
Continuous
 62
     7
370
    15
100
AcDbLine
 10
-260.4901654914
 20
-635.5216485697
 30
0.0
 11
-266.4901654914
 21
-635.5216485697
 31
0.0
  0
LINE
  5
10A
330
1F
100
AcDbEntity
  8
0
  6
Continuous
 62
     7
370
    15
100
AcDbLine
 10
-260.4901654914
 20
-555.5216485697
 30
0.0
 11
-260.4901654914
 21
-635.5216485697
 31
0.0
  0
LINE
  5
10B
330
1F
100
AcDbEntity
  8
0
  6
Continuous
 62
     7
370
    15
100
AcDbLine
 10
-266.4901654914
 20
-555.5216485697
 30
0.0
 11
-260.4901654914
 21
-555.5216485697
 31
0.0
  0
LINE
  5
10C
330
1F
100
AcDbEntity
  8
0
  6
Continuous
 62
     7
370
    15
100
AcDbLine
 10
-92.4901654914
 20
-345.5216485697
 30
0.0
 11
-86.4901654914
 21
-345.5216485697
 31
0.0
  0
LINE
  5
10D
330
1F
100
AcDbEntity
  8
0
  6
Continuous
 62
     7
370
    15
100
AcDbLine
 10
-92.4901654914
 20
-425.5216485697
 30
0.0
 11
-92.4901654914
 21
-345.5216485697
 31
0.0
  0
LINE
  5
10E
330
1F
100
AcDbEntity
  8
0
  6
Continuous
 62
     7
370
    15
100
AcDbLine
 10
-86.4901654914
 20
-425.5216485697
 30
0.0
 11
-92.4901654914
 21
-425.5216485697
 31
0.0
  0
LINE
  5
10F
330
1F
100
AcDbEntity
  8
0
  6
Continuous
 62
     7
370
    15
100
AcDbLine
 10
-86.4901654914
 20
-345.5216485697
 30
0.0
 11
-86.4901654914
 21
-425.5216485697
 31
0.0
  0
LINE
  5
110
330
1F
100
AcDbEntity
  8
0
  6
Continuous
 62
     7
370
    15
100
AcDbLine
 10
-92.4901654914
 20
-555.5216485697
 30
0.0
 11
-86.4901654914
 21
-555.5216485697
 31
0.0
  0
LINE
  5
111
330
1F
100
AcDbEntity
  8
0
  6
Continuous
 62
     7
370
    15
100
AcDbLine
 10
-92.4901654914
 20
-635.5216485697
 30
0.0
 11
-92.4901654914
 21
-555.5216485697
 31
0.0
  0
LINE
  5
112
330
1F
100
AcDbEntity
  8
0
  6
Continuous
 62
     7
370
    15
100
AcDbLine
 10
-86.4901654914
 20
-635.5216485697
 30
0.0
 11
-92.4901654914
 21
-635.5216485697
 31
0.0
  0
LINE
  5
113
330
1F
100
AcDbEntity
  8
0
  6
Continuous
 62
     7
370
    15
100
AcDbLine
 10
-86.4901654914
 20
-555.5216485697
 30
0.0
 11
-86.4901654914
 21
-635.5216485697
 31
0.0
  0
LINE
  5
114
330
1F
100
AcDbEntity
  8
0
  6
Continuous
 62
     7
370
    15
100
AcDbLine
 10
67.5098345086
 20
-135.5216485697
 30
0.0
 11
73.5098345086
 21
-135.5216485697
 31
0.0
  0
LINE
  5
115
330
1F
100
AcDbEntity
  8
0
  6
Continuous
 62
     7
370
    15
100
AcDbLine
 10
67.5098345086
 20
-215.5216485697
 30
0.0
 11
67.5098345086
 21
-135.5216485697
 31
0.0
  0
LINE
  5
116
330
1F
100
AcDbEntity
  8
0
  6
Continuous
 62
     7
370
    15
100
AcDbLine
 10
73.5098345086
 20
-215.5216485697
 30
0.0
 11
67.5098345086
 21
-215.5216485697
 31
0.0
  0
LINE
  5
117
330
1F
100
AcDbEntity
  8
0
  6
Continuous
 62
     7
370
    15
100
AcDbLine
 10
73.5098345086
 20
-135.5216485697
 30
0.0
 11
73.5098345086
 21
-215.5216485697
 31
0.0
  0
LINE
  5
118
330
1F
100
AcDbEntity
  8
0
  6
Continuous
 62
     7
370
    15
100
AcDbLine
 10
67.5098345086
 20
-555.5216485697
 30
0.0
 11
73.5098345086
 21
-555.5216485697
 31
0.0
  0
LINE
  5
119
330
1F
100
AcDbEntity
  8
0
  6
Continuous
 62
     7
370
    15
100
AcDbLine
 10
67.5098345086
 20
-635.5216485697
 30
0.0
 11
67.5098345086
 21
-555.5216485697
 31
0.0
  0
LINE
  5
11A
330
1F
100
AcDbEntity
  8
0
  6
Continuous
 62
     7
370
    15
100
AcDbLine
 10
73.5098345086
 20
-635.5216485697
 30
0.0
 11
67.5098345086
 21
-635.5216485697
 31
0.0
  0
LINE
  5
11B
330
1F
100
AcDbEntity
  8
0
  6
Continuous
 62
     7
370
    15
100
AcDbLine
 10
73.5098345086
 20
-555.5216485697
 30
0.0
 11
73.5098345086
 21
-635.5216485697
 31
0.0
  0
LINE
  5
11C
330
1F
100
AcDbEntity
  8
0
  6
Continuous
 62
     7
370
    15
100
AcDbLine
 10
-381.2199276262
 20
9.3057659504
 30
0.0
 11
-286.4901654914
 21
9.3057659504
 31
0.0
  0
LINE
  5
11D
330
1F
100
AcDbEntity
  8
0
  6
Continuous
 62
     7
370
    15
100
AcDbLine
 10
-246.4901654914
 20
49.3057659504
 30
0.0
 11
-246.4901654914
 21
116.0572029895
 31
0.0
  0
LINE
  5
11E
330
1F
100
AcDbEntity
  8
0
  6
Continuous
 62
     7
370
    15
100
AcDbLine
 10
-309.5306165746
 20
148.7548728436
 30
0.0
 11
-404.2603787094
 21
82.0034358044
 31
0.0
  0
LINE
  5
11F
330
1F
100
AcDbEntity
  8
0
  6
Continuous
 62
     7
370
    15
100
AcDbLine
 10
249.9534408799
 20
-247.9366032346
 30
0.0
 11
333.1401625326
 21
-83.236057855
 31
0.0
  0
LINE
  5
120
330
1F
100
AcDbEntity
  8
0
  6
Continuous
 62
     7
370
    15
100
AcDbLine
 10
243.5098345086
 20
-607.6942340496
 30
0.0
 11
243.5098345086
 21
-274.9867918011
 31
0.0
  0
LINE
  5
121
330
1F
100
AcDbEntity
  8
0
  6
Continuous
 62
     7
370
    15
100
AcDbLine
 10
-546.4901654914
 20
-657.6942340496
 30
0.0
 11
193.5098345086
 21
-657.6942340496
 31
0.0
  0
LINE
  5
122
330
1F
100
AcDbEntity
  8
0
  6
Continuous
 62
     7
370
    15
100
AcDbLine
 10
-596.4901654914
 20
-274.9867918011
 30
0.0
 11
-596.4901654914
 21
-607.6942340496
 31
0.0
  0
LINE
  5
123
330
1F
100
AcDbEntity
  8
0
  6
Continuous
 62
     7
370
    15
100
AcDbLine
 10
-686.1204935154
 20
-83.236057855
 30
0.0
 11
-602.9337718626
 21
-247.9366032346
 31
0.0
  0
LINE
  5
124
330
1F
100
AcDbEntity
  8
0
  6
Continuous
 62
     7
370
    15
100
AcDbLine
 10
-240.2907293454
 20
283.1778532679
 30
0.0
 11
-670.2907293454
 21
-19.8221467321
 31
0.0
  0
LINE
  5
125
330
1F
100
AcDbEntity
  8
0
  6
Continuous
 62
     7
370
    15
100
AcDbLine
 10
-141.4901654914
 20
292.3057659504
 30
0.0
 11
-211.4901654914
 21
292.3057659504
 31
0.0
  0
LINE
  5
126
330
1F
100
AcDbEntity
  8
0
  6
Continuous
 62
     7
370
    15
100
AcDbLine
 10
317.3103983626
 20
-19.8221467321
 30
0.0
 11
-112.6896016374
 21
283.1778532679
 31
0.0
  0
LINE
  5
127
330
1F
100
AcDbEntity
  8
0
  6
Continuous
 62
     7
370
    15
100
AcDbLine
 10
-66.4901654914
 20
9.3057659504
 30
0.0
 11
28.2395966434
 21
9.3057659504
 31
0.0
  0
LINE
  5
128
330
1F
100
AcDbEntity
  8
0
  6
Continuous
 62
     7
370
    15
100
AcDbLine
 10
51.2800477266
 20
82.0034358044
 30
0.0
 11
-43.4497144082
 21
148.7548728436
 31
0.0
  0
LINE
  5
129
330
1F
100
AcDbEntity
  8
0
  6
Continuous
 62
     7
370
    15
100
AcDbLine
 10
-106.4901654914
 20
116.0572029895
 30
0.0
 11
-106.4901654914
 21
49.3057659504
 31
0.0
  0
LINE
  5
12A
330
1F
100
AcDbEntity
  8
0
  6
Continuous
 62
     7
370
    15
100
AcDbLine
 10
227.5098345086
 20
-555.5216485697
 30
0.0
 11
233.5098345086
 21
-555.5216485697
 31
0.0
  0
LINE
  5
12B
330
1F
100
AcDbEntity
  8
0
  6
Continuous
 62
     7
370
    15
100
AcDbLine
 10
227.5098345086
 20
-635.5216485697
 30
0.0
 11
227.5098345086
 21
-555.5216485697
 31
0.0
  0
LINE
  5
12C
330
1F
100
AcDbEntity
  8
0
  6
Continuous
 62
     7
370
    15
100
AcDbLine
 10
233.5098345086
 20
-635.5216485697
 30
0.0
 11
227.5098345086
 21
-635.5216485697
 31
0.0
  0
LINE
  5
12D
330
1F
100
AcDbEntity
  8
0
  6
Continuous
 62
     7
370
    15
100
AcDbLine
 10
233.5098345086
 20
-555.5216485697
 30
0.0
 11
233.5098345086
 21
-635.5216485697
 31
0.0
  0
LINE
  5
12E
330
1F
100
AcDbEntity
  8
0
  6
Continuous
 62
     7
370
    15
100
AcDbLine
 10
227.5098345086
 20
-135.5216485697
 30
0.0
 11
233.5098345086
 21
-135.5216485697
 31
0.0
  0
LINE
  5
12F
330
1F
100
AcDbEntity
  8
0
  6
Continuous
 62
     7
370
    15
100
AcDbLine
 10
227.5098345086
 20
-215.5216485697
 30
0.0
 11
227.5098345086
 21
-135.5216485697
 31
0.0
  0
LINE
  5
130
330
1F
100
AcDbEntity
  8
0
  6
Continuous
 62
     7
370
    15
100
AcDbLine
 10
233.5098345086
 20
-215.5216485697
 30
0.0
 11
227.5098345086
 21
-215.5216485697
 31
0.0
  0
LINE
  5
131
330
1F
100
AcDbEntity
  8
0
  6
Continuous
 62
     7
370
    15
100
AcDbLine
 10
233.5098345086
 20
-135.5216485697
 30
0.0
 11
233.5098345086
 21
-215.5216485697
 31
0.0
  0
LINE
  5
132
330
1F
100
AcDbEntity
  8
0
  6
Continuous
 62
     7
370
    15
100
AcDbLine
 10
67.5098345086
 20
-345.5216485697
 30
0.0
 11
73.5098345086
 21
-345.5216485697
 31
0.0
  0
LINE
  5
133
330
1F
100
AcDbEntity
  8
0
  6
Continuous
 62
     7
370
    15
100
AcDbLine
 10
67.5098345086
 20
-425.5216485697
 30
0.0
 11
67.5098345086
 21
-345.5216485697
 31
0.0
  0
LINE
  5
134
330
1F
100
AcDbEntity
  8
0
  6
Continuous
 62
     7
370
    15
100
AcDbLine
 10
73.5098345086
 20
-425.5216485697
 30
0.0
 11
67.5098345086
 21
-425.5216485697
 31
0.0
  0
LINE
  5
135
330
1F
100
AcDbEntity
  8
0
  6
Continuous
 62
     7
370
    15
100
AcDbLine
 10
73.5098345086
 20
-345.5216485697
 30
0.0
 11
73.5098345086
 21
-425.5216485697
 31
0.0
  0
LINE
  5
136
330
1F
100
AcDbEntity
  8
0
  6
Continuous
 62
     7
370
    15
100
AcDbLine
 10
-92.4901654914
 20
-135.5216485697
 30
0.0
 11
-86.4901654914
 21
-135.5216485697
 31
0.0
  0
LINE
  5
137
330
1F
100
AcDbEntity
  8
0
  6
Continuous
 62
     7
370
    15
100
AcDbLine
 10
-92.4901654914
 20
-215.5216485697
 30
0.0
 11
-92.4901654914
 21
-135.5216485697
 31
0.0
  0
LINE
  5
138
330
1F
100
AcDbEntity
  8
0
  6
Continuous
 62
     7
370
    15
100
AcDbLine
 10
-86.4901654914
 20
-215.5216485697
 30
0.0
 11
-92.4901654914
 21
-215.5216485697
 31
0.0
  0
LINE
  5
139
330
1F
100
AcDbEntity
  8
0
  6
Continuous
 62
     7
370
    15
100
AcDbLine
 10
-86.4901654914
 20
-135.5216485697
 30
0.0
 11
-86.4901654914
 21
-215.5216485697
 31
0.0
  0
LINE
  5
13A
330
1F
100
AcDbEntity
  8
0
  6
Continuous
 62
     7
370
    15
100
AcDbLine
 10
233.5098345086
 20
-345.5216485697
 30
0.0
 11
233.5098345086
 21
-425.5216485697
 31
0.0
  0
LINE
  5
13B
330
1F
100
AcDbEntity
  8
0
  6
Continuous
 62
     7
370
    15
100
AcDbLine
 10
227.5098345086
 20
-345.5216485697
 30
0.0
 11
233.5098345086
 21
-345.5216485697
 31
0.0
  0
LINE
  5
13C
330
1F
100
AcDbEntity
  8
0
  6
Continuous
 62
     7
370
    15
100
AcDbLine
 10
227.5098345086
 20
-425.5216485697
 30
0.0
 11
227.5098345086
 21
-345.5216485697
 31
0.0
  0
LINE
  5
13D
330
1F
100
AcDbEntity
  8
0
  6
Continuous
 62
     7
370
    15
100
AcDbLine
 10
233.5098345086
 20
-425.5216485697
 30
0.0
 11
227.5098345086
 21
-425.5216485697
 31
0.0
  0
LINE
  5
13E
330
1F
100
AcDbEntity
  8
0
  6
Continuous
 62
     7
370
    15
100
AcDbLine
 10
-266.4901654914
 20
-425.5216485697
 30
0.0
 11
-266.4901654914
 21
-345.5216485697
 31
0.0
  0
LINE
  5
13F
330
1F
100
AcDbEntity
  8
0
  6
Continuous
 62
     7
370
    15
100
AcDbLine
 10
-260.4901654914
 20
-425.5216485697
 30
0.0
 11
-266.4901654914
 21
-425.5216485697
 31
0.0
  0
LINE
  5
140
330
1F
100
AcDbEntity
  8
0
  6
Continuous
 62
     7
370
    15
100
AcDbLine
 10
-260.4901654914
 20
-345.5216485697
 30
0.0
 11
-260.4901654914
 21
-425.5216485697
 31
0.0
  0
LINE
  5
141
330
1F
100
AcDbEntity
  8
0
  6
Continuous
 62
     7
370
    15
100
AcDbLine
 10
-266.4901654914
 20
-345.5216485697
 30
0.0
 11
-260.4901654914
 21
-345.5216485697
 31
0.0
  0
LINE
  5
142
330
1F
100
AcDbEntity
  8
0
  6
Continuous
 62
     7
370
    15
100
AcDbLine
 10
-586.4901654914
 20
-555.5216485697
 30
0.0
 11
-580.4901654914
 21
-555.5216485697
 31
0.0
  0
LINE
  5
143
330
1F
100
AcDbEntity
  8
0
  6
Continuous
 62
     7
370
    15
100
AcDbLine
 10
-586.4901654914
 20
-635.5216485697
 30
0.0
 11
-586.4901654914
 21
-555.5216485697
 31
0.0
  0
LINE
  5
144
330
1F
100
AcDbEntity
  8
0
  6
Continuous
 62
     7
370
    15
100
AcDbLine
 10
-580.4901654914
 20
-635.5216485697
 30
0.0
 11
-586.4901654914
 21
-635.5216485697
 31
0.0
  0
LINE
  5
145
330
1F
100
AcDbEntity
  8
0
  6
Continuous
 62
     7
370
    15
100
AcDbLine
 10
-580.4901654914
 20
-555.5216485697
 30
0.0
 11
-580.4901654914
 21
-635.5216485697
 31
0.0
  0
LINE
  5
146
330
1F
100
AcDbEntity
  8
0
  6
Continuous
 62
     7
370
    15
100
AcDbLine
 10
-426.4901654914
 20
-635.5216485697
 30
0.0
 11
-426.4901654914
 21
-555.5216485697
 31
0.0
  0
LINE
  5
147
330
1F
100
AcDbEntity
  8
0
  6
Continuous
 62
     7
370
    15
100
AcDbLine
 10
-420.4901654914
 20
-635.5216485697
 30
0.0
 11
-426.4901654914
 21
-635.5216485697
 31
0.0
  0
LINE
  5
148
330
1F
100
AcDbEntity
  8
0
  6
Continuous
 62
     7
370
    15
100
AcDbLine
 10
-420.4901654914
 20
-555.5216485697
 30
0.0
 11
-420.4901654914
 21
-635.5216485697
 31
0.0
  0
LINE
  5
149
330
1F
100
AcDbEntity
  8
0
  6
Continuous
 62
     7
370
    15
100
AcDbLine
 10
-426.4901654914
 20
-555.5216485697
 30
0.0
 11
-420.4901654914
 21
-555.5216485697
 31
0.0
  0
LINE
  5
14A
330
1F
100
AcDbEntity
  8
0
  6
Continuous
 62
     7
370
    15
100
AcDbLine
 10
-260.4901654914
 20
-135.5216485697
 30
0.0
 11
-260.4901654914
 21
-215.5216485697
 31
0.0
  0
LINE
  5
14B
330
1F
100
AcDbEntity
  8
0
  6
Continuous
 62
     7
370
    15
100
AcDbLine
 10
-266.4901654914
 20
-135.5216485697
 30
0.0
 11
-260.4901654914
 21
-135.5216485697
 31
0.0
  0
LINE
  5
14C
330
1F
100
AcDbEntity
  8
0
  6
Continuous
 62
     7
370
    15
100
AcDbLine
 10
-266.4901654914
 20
-215.5216485697
 30
0.0
 11
-266.4901654914
 21
-135.5216485697
 31
0.0
  0
LINE
  5
14D
330
1F
100
AcDbEntity
  8
0
  6
Continuous
 62
     7
370
    15
100
AcDbLine
 10
-260.4901654914
 20
-215.5216485697
 30
0.0
 11
-266.4901654914
 21
-215.5216485697
 31
0.0
  0
ARC
  5
14E
330
1F
100
AcDbEntity
  8
0
  6
Continuous
 62
     7
370
    15
100
AcDbCircle
 10
-381.2199276262
 20
49.3057659504
 30
0.0
 40
40.00000000000002
100
AcDbArc
 50
125.1704833483
 51
270.0
  0
ARC
  5
14F
330
1F
100
AcDbEntity
  8
0
  6
Continuous
 62
     7
370
    15
100
AcDbCircle
 10
-286.4901654914
 20
49.3057659504
 30
0.0
 40
40.00000000000003
100
AcDbArc
 50
270.0
 51
0.0
  0
ARC
  5
150
330
1F
100
AcDbEntity
  8
0
  6
Continuous
 62
     7
370
    15
100
AcDbCircle
 10
-286.4901654914
 20
116.0572029895
 30
0.0
 40
40.00000000000012
100
AcDbArc
 50
0.0
 51
125.1704833483
  0
ARC
  5
151
330
1F
100
AcDbEntity
  8
0
  6
Continuous
 62
     7
370
    15
100
AcDbCircle
 10
303.5098345086
 20
-274.9867918011
 30
0.0
 40
60.00000000000057
100
AcDbArc
 50
153.2026359369
 51
180.0
  0
ARC
  5
152
330
1F
100
AcDbEntity
  8
0
  6
Continuous
 62
     7
370
    15
100
AcDbCircle
 10
193.5098345086
 20
-607.6942340496
 30
0.0
 40
50.0
100
AcDbArc
 50
270.0
 51
0.0
  0
ARC
  5
153
330
1F
100
AcDbEntity
  8
0
  6
Continuous
 62
     7
370
    15
100
AcDbCircle
 10
-546.4901654914
 20
-607.6942340496
 30
0.0
 40
50.00000000000011
100
AcDbArc
 50
180.0
 51
270.0
  0
ARC
  5
154
330
1F
100
AcDbEntity
  8
0
  6
Continuous
 62
     7
370
    15
100
AcDbCircle
 10
-656.4901654914
 20
-274.9867918011
 30
0.0
 40
60.00000000000376
100
AcDbArc
 50
0.0
 51
26.7973640631
  0
ARC
  5
155
330
1F
100
AcDbEntity
  8
0
  6
Continuous
 62
     7
370
    15
100
AcDbCircle
 10
-641.4901654914
 20
-60.6942340496
 30
0.0
 40
50.00000000000012
100
AcDbArc
 50
125.1704833483
 51
206.7973640631
  0
ARC
  5
156
330
1F
100
AcDbEntity
  8
0
  6
Continuous
 62
     7
370
    15
100
AcDbCircle
 10
-211.4901654914
 20
242.3057659504
 30
0.0
 40
50.00000000000122
100
AcDbArc
 50
90.0
 51
125.1704833483
  0
ARC
  5
157
330
1F
100
AcDbEntity
  8
0
  6
Continuous
 62
     7
370
    15
100
AcDbCircle
 10
-141.4901654914
 20
242.3057659504
 30
0.0
 40
50.00000000000077
100
AcDbArc
 50
54.8295166517
 51
90.0
  0
ARC
  5
158
330
1F
100
AcDbEntity
  8
0
  6
Continuous
 62
     7
370
    15
100
AcDbCircle
 10
288.5098345086
 20
-60.6942340496
 30
0.0
 40
50.00000000000087
100
AcDbArc
 50
333.2026359369
 51
54.8295166517
  0
ARC
  5
159
330
1F
100
AcDbEntity
  8
0
  6
Continuous
 62
     7
370
    15
100
AcDbCircle
 10
-66.4901654914
 20
49.3057659504
 30
0.0
 40
40.00000000000001
100
AcDbArc
 50
180.0
 51
270.0
  0
ARC
  5
15A
330
1F
100
AcDbEntity
  8
0
  6
Continuous
 62
     7
370
    15
100
AcDbCircle
 10
28.2395966434
 20
49.3057659504
 30
0.0
 40
39.99999999999997
100
AcDbArc
 50
270.0
 51
54.8295166517
  0
ARC
  5
15B
330
1F
100
AcDbEntity
  8
0
  6
Continuous
 62
     7
370
    15
100
AcDbCircle
 10
-66.4901654914
 20
116.0572029895
 30
0.0
 40
40.00000000000001
100
AcDbArc
 50
54.8295166517
 51
180.0
  0
ENDSEC
  0
SECTION
  2
OBJECTS
  0
DICTIONARY
  5
C
330
0
100
AcDbDictionary
281
     1
  3
ACAD_GROUP
350
D
  3
ACAD_LAYOUT
350
1A
  3
ACAD_MLINESTYLE
350
17
  3
ACAD_PLOTSETTINGS
350
19
  3
ACAD_PLOTSTYLENAME
350
E
  3
ACAD_SCALELIST
350
47
  0
DICTIONARY
  5
D
102
{ACAD_REACTORS
330
C
102
}
330
C
100
AcDbDictionary
281
     1
  0
DICTIONARY
  5
1A
102
{ACAD_REACTORS
330
C
102
}
330
C
100
AcDbDictionary
281
     1
  3
Layout1
350
1E
  3
Layout2
350
26
  3
Model
350
22
  0
DICTIONARY
  5
17
102
{ACAD_REACTORS
330
C
102
}
330
C
100
AcDbDictionary
281
     1
  3
Standard
350
18
  0
DICTIONARY
  5
19
102
{ACAD_REACTORS
330
C
102
}
330
C
100
AcDbDictionary
281
     1
  0
ACDBDICTIONARYWDFLT
  5
E
102
{ACAD_REACTORS
330
C
102
}
330
C
100
AcDbDictionary
281
     1
  3
Normal
350
F
100
AcDbDictionaryWithDefault
340
F
  0
DICTIONARY
  5
47
102
{ACAD_REACTORS
330
C
102
}
330
C
100
AcDbDictionary
281
     1
  3
A0
350
48
  3
A1
350
49
  3
A2
350
4A
  3
A3
350
4B
  3
A4
350
4C
  3
A5
350
4D
  3
A6
350
4E
  3
A7
350
4F
  3
A8
350
50
  3
A9
350
51
  3
B0
350
52
  3
B1
350
53
  3
B2
350
54
  3
B3
350
55
  3
B4
350
56
  3
B5
350
57
  3
B6
350
58
  3
B7
350
59
  3
B8
350
5A
  3
B9
350
5B
  3
C0
350
5C
  3
C1
350
5D
  3
C2
350
5E
  3
C3
350
5F
  3
C4
350
60
  3
C5
350
61
  3
C6
350
62
  3
C7
350
63
  3
C8
350
64
  3
C9
350
65
  3
D0
350
66
  3
D1
350
67
  3
D2
350
68
  0
LAYOUT
  5
1E
102
{ACAD_REACTORS
330
1A
102
}
330
1A
100
AcDbPlotSettings
  1

  2
none_device
  4

  6

 40
0.0
 41
0.0
 42
0.0
 43
0.0
 44
0.0
 45
0.0
 46
0.0
 47
0.0
 48
0.0
 49
0.0
140
0.0
141
0.0
142
1.0
143
1.0
 70
   688
 72
     1
 73
     0
 74
     5
  7

 75
    16
147
1.0
148
0.0
149
0.0
100
AcDbLayout
  1
Layout1
 70
     1
 71
     1
 10
0.0
 20
0.0
 11
420.0
 21
297.0
 12
0.0
 22
0.0
 32
0.0
 14
1.0000000000E+20
 24
1.0000000000E+20
 34
1.0000000000E+20
 15
-1.0000000000E+20
 25
-1.0000000000E+20
 35
-1.0000000000E+20
146
0.0
 13
0.0
 23
0.0
 33
0.0
 16
1.0
 26
0.0
 36
0.0
 17
0.0
 27
1.0
 37
0.0
 76
     0
330
1B
  0
LAYOUT
  5
26
102
{ACAD_REACTORS
330
1A
102
}
330
1A
100
AcDbPlotSettings
  1

  2
none_device
  4

  6

 40
0.0
 41
0.0
 42
0.0
 43
0.0
 44
0.0
 45
0.0
 46
0.0
 47
0.0
 48
0.0
 49
0.0
140
0.0
141
0.0
142
1.0
143
1.0
 70
   688
 72
     1
 73
     0
 74
     5
  7

 75
    16
147
1.0
148
0.0
149
0.0
100
AcDbLayout
  1
Layout2
 70
     1
 71
     2
 10
0.0
 20
0.0
 11
0.0
 21
0.0
 12
0.0
 22
0.0
 32
0.0
 14
0.0
 24
0.0
 34
0.0
 15
0.0
 25
0.0
 35
0.0
146
0.0
 13
0.0
 23
0.0
 33
0.0
 16
1.0
 26
0.0
 36
0.0
 17
0.0
 27
1.0
 37
0.0
 76
     0
330
23
  0
LAYOUT
  5
22
102
{ACAD_REACTORS
330
1A
102
}
330
1A
100
AcDbPlotSettings
  1

  2
none_device
  4
ANSI_A_(11.00_x_8.50_Inches)
  6

 40
6.35
 41
19.05
 42
6.35000508
 43
19.05000254
 44
279.4
 45
215.9
 46
173.0586126835
 47
130.0044706037
 48
0.0
 49
0.0
140
0.0
141
0.0
142
0.0088578947
143
1.0
 70
  1696
 72
     0
 73
     0
 74
     0
  7

 75
     0
147
0.0179189148
148
-1300.4909072572
149
0.0
100
AcDbLayout
  1
Model
 70
     1
 71
     0
 10
0.0
 20
0.0
 11
420.0
 21
297.0
 12
0.0
 22
0.0
 32
0.0
 14
-691.4901654914
 24
-657.6942340496
 34
0.0
 15
338.5098345086
 25
292.3057659504
 35
0.0
146
0.0
 13
0.0
 23
0.0
 33
0.0
 16
1.0
 26
0.0
 36
0.0
 17
0.0
 27
1.0
 37
0.0
 76
     0
330
1F
331
29
  0
MLINESTYLE
  5
18
102
{ACAD_REACTORS
330
17
102
}
330
17
100
AcDbMlineStyle
  2
Standard
 70
     0
  3

 62
   256
 51
90.0
 52
90.0
 71
     2
 49
0.5
 62
   256
  6
BYLAYER
 49
-0.5
 62
   256
  6
BYLAYER
  0
ACDBPLACEHOLDER
  5
F
102
{ACAD_REACTORS
330
E
102
}
330
E
  0
SCALE
  5
48
102
{ACAD_REACTORS
330
47
102
}
330
47
100
AcDbScale
 70
     0
300
1:1
140
1.0
141
1.0
290
     1
  0
SCALE
  5
49
102
{ACAD_REACTORS
330
47
102
}
330
47
100
AcDbScale
 70
     0
300
1:2
140
1.0
141
2.0
290
     0
  0
SCALE
  5
4A
102
{ACAD_REACTORS
330
47
102
}
330
47
100
AcDbScale
 70
     0
300
1:4
140
1.0
141
4.0
290
     0
  0
SCALE
  5
4B
102
{ACAD_REACTORS
330
47
102
}
330
47
100
AcDbScale
 70
     0
300
1:5
140
1.0
141
5.0
290
     0
  0
SCALE
  5
4C
102
{ACAD_REACTORS
330
47
102
}
330
47
100
AcDbScale
 70
     0
300
1:8
140
1.0
141
8.0
290
     0
  0
SCALE
  5
4D
102
{ACAD_REACTORS
330
47
102
}
330
47
100
AcDbScale
 70
     0
300
1:10
140
1.0
141
10.0
290
     0
  0
SCALE
  5
4E
102
{ACAD_REACTORS
330
47
102
}
330
47
100
AcDbScale
 70
     0
300
1:16
140
1.0
141
16.0
290
     0
  0
SCALE
  5
4F
102
{ACAD_REACTORS
330
47
102
}
330
47
100
AcDbScale
 70
     0
300
1:20
140
1.0
141
20.0
290
     0
  0
SCALE
  5
50
102
{ACAD_REACTORS
330
47
102
}
330
47
100
AcDbScale
 70
     0
300
1:30
140
1.0
141
30.0
290
     0
  0
SCALE
  5
51
102
{ACAD_REACTORS
330
47
102
}
330
47
100
AcDbScale
 70
     0
300
1:40
140
1.0
141
40.0
290
     0
  0
SCALE
  5
52
102
{ACAD_REACTORS
330
47
102
}
330
47
100
AcDbScale
 70
     0
300
1:50
140
1.0
141
50.0
290
     0
  0
SCALE
  5
53
102
{ACAD_REACTORS
330
47
102
}
330
47
100
AcDbScale
 70
     0
300
1:100
140
1.0
141
100.0
290
     0
  0
SCALE
  5
54
102
{ACAD_REACTORS
330
47
102
}
330
47
100
AcDbScale
 70
     0
300
2:1
140
2.0
141
1.0
290
     0
  0
SCALE
  5
55
102
{ACAD_REACTORS
330
47
102
}
330
47
100
AcDbScale
 70
     0
300
4:1
140
4.0
141
1.0
290
     0
  0
SCALE
  5
56
102
{ACAD_REACTORS
330
47
102
}
330
47
100
AcDbScale
 70
     0
300
8:1
140
8.0
141
1.0
290
     0
  0
SCALE
  5
57
102
{ACAD_REACTORS
330
47
102
}
330
47
100
AcDbScale
 70
     0
300
10:1
140
10.0
141
1.0
290
     0
  0
SCALE
  5
58
102
{ACAD_REACTORS
330
47
102
}
330
47
100
AcDbScale
 70
     0
300
100:1
140
100.0
141
1.0
290
     0
  0
SCALE
  5
59
102
{ACAD_REACTORS
330
47
102
}
330
47
100
AcDbScale
 70
     0
300
1/128" = 1'-0"
140
0.0078125
141
12.0
290
     0
  0
SCALE
  5
5A
102
{ACAD_REACTORS
330
47
102
}
330
47
100
AcDbScale
 70
     0
300
1/64" = 1'-0"
140
0.015625
141
12.0
290
     0
  0
SCALE
  5
5B
102
{ACAD_REACTORS
330
47
102
}
330
47
100
AcDbScale
 70
     0
300
1/32" = 1'-0"
140
0.03125
141
12.0
290
     0
  0
SCALE
  5
5C
102
{ACAD_REACTORS
330
47
102
}
330
47
100
AcDbScale
 70
     0
300
1/16" = 1'-0"
140
0.0625
141
12.0
290
     0
  0
SCALE
  5
5D
102
{ACAD_REACTORS
330
47
102
}
330
47
100
AcDbScale
 70
     0
300
3/32" = 1'-0"
140
0.09375
141
12.0
290
     0
  0
SCALE
  5
5E
102
{ACAD_REACTORS
330
47
102
}
330
47
100
AcDbScale
 70
     0
300
1/8" = 1'-0"
140
0.125
141
12.0
290
     0
  0
SCALE
  5
5F
102
{ACAD_REACTORS
330
47
102
}
330
47
100
AcDbScale
 70
     0
300
3/16" = 1'-0"
140
0.1875
141
12.0
290
     0
  0
SCALE
  5
60
102
{ACAD_REACTORS
330
47
102
}
330
47
100
AcDbScale
 70
     0
300
1/4" = 1'-0"
140
0.25
141
12.0
290
     0
  0
SCALE
  5
61
102
{ACAD_REACTORS
330
47
102
}
330
47
100
AcDbScale
 70
     0
300
3/8" = 1'-0"
140
0.375
141
12.0
290
     0
  0
SCALE
  5
62
102
{ACAD_REACTORS
330
47
102
}
330
47
100
AcDbScale
 70
     0
300
1/2" = 1'-0"
140
0.5
141
12.0
290
     0
  0
SCALE
  5
63
102
{ACAD_REACTORS
330
47
102
}
330
47
100
AcDbScale
 70
     0
300
3/4" = 1'-0"
140
0.75
141
12.0
290
     0
  0
SCALE
  5
64
102
{ACAD_REACTORS
330
47
102
}
330
47
100
AcDbScale
 70
     0
300
1" = 1'-0"
140
1.0
141
12.0
290
     0
  0
SCALE
  5
65
102
{ACAD_REACTORS
330
47
102
}
330
47
100
AcDbScale
 70
     0
300
1-1/2" = 1'-0"
140
1.5
141
12.0
290
     0
  0
SCALE
  5
66
102
{ACAD_REACTORS
330
47
102
}
330
47
100
AcDbScale
 70
     0
300
3" = 1'-0"
140
3.0
141
12.0
290
     0
  0
SCALE
  5
67
102
{ACAD_REACTORS
330
47
102
}
330
47
100
AcDbScale
 70
     0
300
6" = 1'-0"
140
6.0
141
12.0
290
     0
  0
SCALE
  5
68
102
{ACAD_REACTORS
330
47
102
}
330
47
100
AcDbScale
 70
     0
300
1'-0" = 1'-0"
140
12.0
141
12.0
290
     0
  0
ENDSEC
  0
EOF
